e|-------------------------------------------| / / e|-------------------------------------------| / /
busca

Natália

Legião Urbana

Tom: G
Versão 1:

Intro e Verso:
e|-------------------------------------------|
B|-------------------------------------------|
G|----------------7--5-----------------------|
D|------7----7--5----------------------------|
A|--------7----------------------------------|
E|---5---------------------------------------|

e|-------------------------------------------|
B|-------------------------------------------|
G|-------------------------------------------|
D|------7----7-----5-----7-------------------|
A|--------7-----3-----5-----5----------------|
E|---5---------------------------------------|

Outro:

e|-------------------------------------------|
B|-------------------------------------------|
G|----------------7--5~~---------------------|
D|------7----7--5----5~~---------------------|
A|--------7----------------------------------|
E|---5---------------------------------------|

e|-------------------------------------------|
e|-------------------------------------------|
B|-------------------------------------------|
G|----------------55~~--7~~------------------|
D|------7----7----55~~--7~~------------------|
A|--------7----------------------------------|
E|---5---------------------------------------|

Refrão:

e|-------------------------------------------|
B|-------------------------------------------|
G|---77777--55555----------------------------|
D|---77777--55555--5555555555----------------|
A|---55555--33333--5555555555----------------|
E|-----------------3333333333----------------|


Vamos   falar  de pesticidas 
E de tragédias radioativas 
De doenças incuráveis 
Vamos falar de sua vida 

Preste atenção ao que eles dizem 
Ter esperança é hipocrisia 
A felicidade é uma mentira 
E a mentira é a salvação 
     C       D        Am   C D
B|-----8-8------10-10-------------|   2x
G|-7/9--9--9/11---9---5-5--5-7-7b-|

Beba desse sangue imundo 
E  você conseguirá dinheiro 
E  quando o circo pega fogo 
Somos os animais na jaula 

Mas você só quer algodão-doce 
Não confunda ética com éter 
Quando penso em você eu tenho febre 

Refrão

Mas quem sabe um dia eu escrevo
Uma canção pra você 
Mas quem sabe um dia eu escrevo 
Uma canção pra você 
 
   G Am
G|---------------------------|
D|-5/7-7-7-7-...-------------|
A|-5/7-7-7-7-...-------------|
E|-3/5-5-5-5-...-------------|

É complicado estar só 
Quem está sozinho que o diga 
Quando a tristeza é sempre o ponto de partida 
Quanto tudo é solidão 

É preciso acreditar num novo dia 
Na nossa grande geração perdida 
Nos meninos e meninas 
Nos trevos de quatro folhas 
A escuridão ainda é pior que essa luz cinza 
Mas estamos vivos ainda 
E quem sabe um dia eu escrevo 

Uma canção pra você 
Quem sabe um dia eu escrevo 
Uma canção pra você 


_______________________________________________________





Versão 2:

Intr.: (Am D C Am C D )


(Am  D  C  Am  C  D  )
Vamos   falar  de pesticidas 
E de tragédias radioativas 
De doenças incuráveis 
Vamos falar de sua vida 
(Am  D  C  Am  C  D  )
Preste atenção ao que eles dizem 
Ter esperança é hipocrisia 
A felicidade é uma mentira 
                     Am  C  D
E a mentira é a salvação 
Am             D    C      D 
Beba desse sangue imundo 
 Am              D     C     D 
E  você conseguirá dinheiro 
(Am  D  C  Am  C  D  )
E  quando o circo pega fogo 
Somos os animais na jaula 
Am
Mas você só quer algodão-doce 
(Am  D  C  Am  C  D  )
Não confunda ética com éter 
                                 Am  C  D
Quando penso em você eu tenho febre 
D                 C        G
Mas quem sabe um dia eu escrevo 
                  D
Uma canção pra você 
                  C        G
Mas quem sabe um dia eu escrevo 
                  D
Uma canção pra você 
(Am  D  C  Am  C  D  )
É complicado estar só 
Quem está sozinho que o diga 
Quando a tristeza é sempre o ponto de partida 
Quanto tudo é solidão 
D            C          G
É preciso acreditar num novo dia 
D            C         G
  Na nossa grande geração perdida 
D           C         G
     Nos meninos e meninas 
D                   C      G
     Nos trevos de quatro folhas 
         D           C                 G
A escuridão ainda é pior que essa luz cinza 
       D     C     G
Mas estamos vivos ainda 
D                  C        G
E quem sabe um dia eu escrevo 

                  D
Uma canção pra você 
              C         G
Quem sabe um dia eu escrevo 
                D
Uma canção pra você 

Clipes