busca

O Descobrimento do Brasil

Legião Urbana

Tom: D
- Legião Urbana - álbum  O Descobrimento do Brasil   
- música  O Descobrimento Do Brasil 

AFINAÇÃO:(Eb Bb Gb Db Ab Eb)é só afroxar as cordas
                            em uma casa(ou 1/2 tom).

INTRO: G  Bm D  
BAIXO: 
  G              Bm      D
e|------------------------------|------------------------------|
B|------------------------------|------------------------------|
G|------------------------------|------------------------------|
D|------------------------------|----------------------2-2-2-2-|
A|---------------2-2-2-2-5-5-5-5|---------------2-2-2-2--------|
E|3-3-3-3-3-3-3-3---------------|3-3-3-3-3-3-3-3---------------|

VIOLÃO:   riff 1
e|--5-5-5-5-5----|
B|-8-7-5-3-------|
G|---------5-4---|4x
D|------------7-5|
A|---------------|
E|---------------|

TECLADO (PODE FEITO PELA GUITARRA)
e|-7--7--5-7-5-7-5--3--5--7--7--5-7-5-7-8--7--5-|
B|----------------------------------------------|
G|----------------------------------------------|
D|----------------------------------------------|
A|----------------------------------------------|
E|----------------------------------------------|
           G                    Bm  D
Ela me disse que trabalha no correio
         G                    Bm  D
E que namora um menino eletricista
  G                    
Estou pensando em casamento
           Bm  D      G      Bm  D  riff 1
Mas não quero me casar
G                    Bm  D
Quem modelou teu rosto ?
     G                    Bm  D
Quem viu a tua alma entrando ?
       G                    Bm  D   G     Bm  D  riff 1
Quem viu a tua alma entrar ?

TECLADO (PODE FEITO PELA GUITARRA)
e|-7--7---5-|---7--5-7-5-7-5--3--5--3--7--7--5-7-5-7-8--7--5|
B|----------|8x---------------------------------------------|
G|----------|-----------------------------------------------|
G                    Bm  D
Quem são teus inimigos ?
G             Bm  D  G
Quem é de tua cria ? A professora 
  Bm  D G          Bm  D  G           Bm  D   G     Bm  D  riff 1
Adélia, a tia Edilamar    e a tia Esperança
           G
 Será que você vai saber 
                Bm   D G            Bm  D 
O quanto penso em você com o meu coração ? (2x)
        G               Bm  D
Quem está agora ao teu lado ?
 G                 Bm  D              
Quem para sempre está ?
G                    Bm  D  G     Bm  D  riff 1
Quem para sempre estará ?

BAIXO:
  A              C#m     E
e|------------------------------|-------------------------------|
B|------------------------------|-------------------------------|
G|------------------------------|-------------------------------|
D|------------------------------|-------------------------------|
A|---------------4-4-4-4-7-7-7-7|---------------4-4-4-4-2-2-2-2-|
E|5-5-5-5-5-5-5-5---------------|5-5-5-5-5-5-5-5----------------|

TECLADO (PODE FEITO PELA GUITARRA)
e|-9--9--7-9-7-9-10--9--7----------------|
B|---------------------------------------|
G|---------------------------------------|
           A                       C#m   E
Ela me disse que trabalha no correio 
         A                      C#m   B5
E que namora um menino eletricista
         A               C#m   E
As famílias se conhecem bem
          A        C#m   B5
E são amigas nesta vida

TECLADO (PODE FEITO PELA GUITARRA)
e|-9--9--7-9-7-9-7--5--7--9--9--7-9-7-9-10--9--7|
B|----------------------------------------------|
G|----------------------------------------------|
          A    
Será que você vai saber, o quanto   
 C#m       E  A            C#m   B5               
penso em você com meu coração ?
          A
Será que você vai saber, o quanto 
 C#m       E A              C#m   B5  A   C#m E  A   C#m B5
penso em você com o meu coração ?

TECLADO (PODE FEITO PELA GUITARRA)
e|-7--7--5-7-5-7-5--3--5--7--7--5-7-5-7-8--7--5-|
B|----------------------------------------------|
G|----------------------------------------------|
          G                 Bm  D
A gente quer um lugar pra gente
         G                 Bm  D
A gente quer é de papel passado
        G                Bm  D
Com festa, bolo e brigadeiro
         G                 Bm  D
A gente quer um canto sossegado
         G                  Bm  D  G     Bm  D   riff 1
A gente quer um canto de sossego
           G
Estou pensando em casamento
           Bm         D     G      Bm  D    riff 1
Ainda não posso me casar
G                 Bm  D
Eu sou rapaz direito
   G                  Bm 
E fui escolhido pela menina
               D     (G    Bm  D D4 D G     Bm  D D4 D)...
        mais bonita

B5 (x244xx)
D4 (xx0233)
 

Clipes