Sereníssima

Legião Urbana

A/D
123
XX0655
A4(7)
12
X02030
A7
12
X02020
A7(4)
12
X02030
C
123
X32010
C9
34
X35533
D
123
XX0232
D5
134
X577XX
D5(9)
134
X579XX
D9
12
XX0230
D9/F#
123
2X0230
Em
12
022000
Em7
123
022030
Em7(11)
12
000033
G
123
320003
G/B
123
X20033
G/D
1234
X5543X
G/F#
123
2X0033
G5
134
355XXX
G5/F#
123
2X0033
Tom: G
Tom: G

Violão 1

Introdução:
G/D  D9  G/D  A/D  D
D C9 G/B C9 (4x)
C9 G/B A4(7) G5 G5/F# Em7(11) D (4x)



                  C    G
Sou um animal sentimental
             C         D                    C    G C
Me apego facilmente ao que desperta o meu desejo
 D               C    G
Tente me obrigar a fazer o que não quero
     C     D                  C  G
E você vai logo ver o que acontece
C                         G
Acho que entendo o que você quis me dizer
     D             A7
Mas existem outras coisas

 D                C      G                  C
Consegui meu equilíbrio cortejando a insanidade,
 D                 C    G               C
Tudo está perdido mas existem possibilidades-
 D                 C   G
Tinhamos a idéia, mas você mudou os planos
 C            D             C       G
Tinhamos um plano, você mudou de idéia

       C                     G           D  A7
Já passou, já passou - quem sabe outro dia-

G     G/F#   Em     A7          D
Antes eu sonhava, agora já não durmo
        G     G/F#  Em    A7            D
Quando foi que competimos pela primeira vez?
G      G/F#       Em           A7         D
O que ninguém percebe é o que todo mundo sabe
       G    G/F# Em       A7            D
Não entendo terrorismo, falávamos de amizade

introdução: D C9 G/B C9 (4x)
           C9 G/B A4(7) G5 G5/F# Em7(11) D (4x)

 D                     C    G
Não estou mais interessado no que sinto
        C       D                  C    G C
Não acredito em nada além do que duvido

 D                      C         G
Você espera respostas que eu não tenho
     C      D             C    G
Não vou brigar por causa disso
    C               G                 D  A7
Até penso duas vezes se você quiser ficar

       G    G/F#  Em              A7         D
Minha laranjeira verde, porque está tão prateada?
        G     G/F# Em        A7           D
Foi da lua desta noite, do sereno da madrugada
     G      G/F#  Em      A7           D
Tenho um sorriso bobo, parecido com soluço
            G     G/F#    Em7
Enquanto o caos segue em frente
      A7              D   ( G D9/F# Em A7 D )2x
Com toda a calma do mundo


Violão 2

Introdução:

#1t1# D
#1t2#------------------2-----2----------------
---3-----3-----3----3-----3---3----------
-----2-----2---2------2-----2------------
-0-----0-----0-0------------0------------
-----------------------------------------
-----------------------------------------#/1t2##/1t1#

#2t1# D
#2t2#-----------------2-----2-----------------
----3-----3--------3-----3---3-----------
-2----2-----2--------2-----2-------------
-0------0-----0------------0-------------
-----------------------------------------
-----------------------------------------#/2t2##/2t1#

#3t1# D              D5    D5(9)
#3t2#---2------0-------3-----1¼---------------
-----3------3-------3------3-------------
-2-----2--------0-----0-------2----------
-0----------------------------0----------
-----------------------------------------
-----------------------------------------#/3t2##/3t1#

#4t1# C9       G/B     A7(4)   G
#4t2#-----------------------------------------
------3--------3-------3-------3---------
---0--0-----0--0----0--0----0--0---------
---2--------0-------0-------0------------
-3--------2-------0-----------------0----
--------------------------3------2¼------#/4t2##/4t1#

#5t1# D
#5t2#----2---2-2-2-2---2------2---------------
----3---3-3-3-3-----3------3-------------
-2--2---2-2-2-2-------2------2-----------
-0--0---0-0-0-0-------0------0-----------
-----------------------------------------
-----------------------------------------#/5t2##/5t1#


#6t1##6t2#------3------3------0------0-------------
----5------4------3------3---------------
--5------5------2------0-----------------
-----------------------------4--2p0------
-----------------------------------------
-----------------------------------------#/6t2##/6t1#


Estrofe:

#7t1# D                           C9
#7t2#---2------2------2------2----3--3-3------
-----3------3------3----3----3--3-3------
-2-----2------2------2--2----0--0-0------
-0----------------------0----2--2-2------
-----------------------------3--3-3------
-----------------------------------------#/7t2##/7t1#

#8t1# G                          C9
#8t2#---3------3-----3-----------3--3-3-------
-----3------3-----3----3----3--3-3-------
-------0------0-----0--0----0--0-0-------
-0---------------------0----2--2-2-------
-2---------------------2----3--3-3-------
-3---------------------------------------#/8t2##/8t1#

#9t1#variação antes da parte b:
 G
#9t2#---3------3-----3-----3------------------
-----3------3-----3-----3----------------
-------0------0-----0-----0--------------
-0---------------------------------------
-2---------------------------------------
-3---------------------------------------#/9t2##/9t1#

Parte b:

#10t1##10t2#---------------------------------------------------
-----8------8------10/12----12\10----10\-----------
-------9------9------------------------------------
--10-----10-----10-------12-------10---------------
---------------------------------------------------
---------------------------------------------------#/10t2##/10t1#


#11t1##11t2#---------------------------------------------------
----8-----8-----8-----8----------------------------
------7-----7-----7-----7--------------------------
--9-----9-----9-----9-----9------------------------
---------------------------------------------------
---------------------------------------------------#/11t2##/11t1#


#12t1##12t2#---------------------------------------------------
----7-----7-----7-----7----------------------------
------7-----7-----7-----7--------------------------
--7-----7-----7-----7-----7------------------------
---------------------------------------------------
---------------------------------------------------#/12t2##/12t1#


#13t1##13t2#---------------------------------------------------
------10\----8\----7\-----5------------------------
---------------------------------------------------
-9/11------9\----7\-----5--------------------------
---------------------------------------------------
---------------------------------------------------#/13t2##/13t1#


Refrão Final:

#14t1##14t2#---------------------------------------------------
---8-----8-----7-----8-----------------------------
-----7-----7-----7-----7---------------------------
-9-----9-----9-----9-----9-------------------------
---------------------------------------------------
---------------------------------------------------#/14t2##/14t1#


#15t1##15t2#---------------------------------------------------
------10------10--------7-----7--------------------
---------9-------9--------7-----7------------------
-9/11------11------11-7-----7-----7----------------
---------------------------------------------------
---------------------------------------------------#/15t2##/15t1#
Composição: Dado Villa-Lobos / Renato RussoColaboração e revisão: Oberdan SallesRangel LangeGabriel Chagas
Videoaula Sereníssima (aula de violão)