busca

Schubert Ländler

Legião Urbana

Tom: D
Schubert Länder 
(Renato Russo)



      D           G             D             A          D
 E|--5--5--10--7--------7--5--------5--------0------|
B|---------------8--8--------7--7-----8--8-----7---|
G|-------------------------------------------------|
D|-------------------------------------------------|
A|-------------------------------------------------|
E|-------------------------------------------------|


      D           G             D             A          D
 E|--5--5--10--7--------7--5--------5--------5------|
B|---------------8--8--------7--7-----8--8-----7---|
G|-------------------------------------------------|
D|-------------------------------------------------|
A|-------------------------------------------------|
E|-------------------------------------------------|


      D           G                  D             A         D
 E|--5--5--14--12---------12--10--------7--5--5------
B|---------------14--14----------7--7----------8--7-
G|--------------------------------------------------
D|--------------------------------------------------
A|--------------------------------------------------
E|-------------------------------------------------- (2x)

Cifrada por Lucas Queiroga

Clipes