/ / Não adiantou trancar a minha porta, / Entrou pela janela / E me fez prisioneiro das vontades dela / Fiquei de m" /> / / Não adiantou trancar a minha porta, / Entrou pela janela / E me fez prisioneiro das vontades dela / Fiquei de m">
busca

Crime Perfeito

Marília Mendonça

Tom: G
Intro:
        D                      A                        Em         D/F# G
E|-----------5-5-5-5-3-2-0--0-0-0-0-0-5-5-5-5-3-2-3--2-3-2-3-2-------------|
B|-3-3-3-3-3----------------2-2-2-2-2-------------------------3------------|
G|-------------------------------------------------------------2-4-2-0-----|
D|---------------------------------------------------------------------4-0-|
A|-------------------------------------------------------------------------|
E|-------------------------------------------------------------------------|

          D
Não adiantou trancar a minha porta,
               A
Entrou pela janela
                                   Am/C
E me fez prisioneiro das vontades dela
                                   B4    B7
Fiquei de mãos atadas não pude impedir

    Em                          D/F#      G
Depois saiu levando o que tinha mais valor
                               D         A
E nessa correria esqueceu do amor, da saudade

     Em
Me pegou desprevenido eu nunca suspeitaria
      Bm
Meu mundo desabando inteiro em menos de um dia
       G                 Em
Teu cheiro pelo ar, teus atos pelo chão
      A                  F#             D
E eu fui outra vitima da sua ingratidão

Refrão:
D                                  A
Eu fui o seu refém desse crime perfeito
                                    Em
Levou o que era meu você não tem direito
D/F#   G        A          D
De me amar e fugir agora...
                                  A
Eu vou reconstruir tudo feito um bobo
                                   Em
Mesmo sabendo que vai me roubar de novo
D/F#  G         A          D
Só assim eu te vejo outra vez

Intro:
        D                      A                        Em         D/F# G
E|-----------5-5-5-5-3-2-0--0-0-0-0-0-5-5-5-5-3-2-3--2-3-2-3-2-------------|
B|-3-3-3-3-3----------------2-2-2-2-2-------------------------3------------|
G|-------------------------------------------------------------2-4-2-0-----|
D|---------------------------------------------------------------------4-0-|
A|-------------------------------------------------------------------------|
E|-------------------------------------------------------------------------|

          D
Não adiantou trancar a minha porta,
               A
Entrou pela janela
                                   Am/C
E me fez prisioneiro das vontades dela
                                   B4    B7
Fiquei de mãos atadas não pude impedir

    Em                          D/F#      G
Depois saiu levando o que tinha mais valor
                               D         A
E nessa correria esqueceu do amor, da saudade

     Em
Me pegou desprevenido eu nunca suspeitaria
      Bm
Meu mundo desabando inteiro em menos de um dia
       G                 Em
Teu cheiro pelo ar, teus atos pelo chão
      A                  F#             D
E eu fui outra vitima da sua ingratidão

Refrão 2x:
D                                  A
Eu fui o seu refém desse crime perfeito
                                    Em
Levou o que era meu você não tem direito
D/F#   G        A          D
De me amar e fugir agora...
                                  A
Eu vou reconstruir tudo feito um bobo
                                   Em
Mesmo sabendo que vai me roubar de novo
D/F#  G         A          D
Só assim eu te vejo outra vez

Clipes