busca

Love À Queima Roupa

Marília Mendonça

Tom: G#m (forma dos acordes no tom de F#m) Capotraste na 2ª casa
[Intro] Em 

(guitarra sem capotraste)

E|------------------------------------------|
B|---------9-10-9h10p9----------------------|
G|-9h11-11-------------11-9-----------------|
D|--------------------------11--------------|
A|------------------------------------------|
E|------------------------------------------|

E|------------------------------------------|
B|----------9-10-9h10p9---------------------|
G|-11-11-11-------------11-9----------------|
D|------------------------------------------|
A|------------------------------------------|
E|------------------------------------------|

[Primeira Parte]

Em         G                        D
  E olha só você tentando andar na linha
                   A9
E o desejo sempre te empurrando
Em              G                   D
  Frequentemente mente pro subconsciente
                 A9                     Em
Que é só uma saidinha, mas já tá voltando

[Pré-Refrão]

        G           
E essa volta demora 
        D                   A9
E você volta só segunda-feira
        Em           G
Uma pausinha na sua vida rotineira

[Refrão]

Em                        G
Uma noite apenas vai ser pouca
                    D    
Tome love à queima roupa
                   A9
Um remember, hoje vai rolar
  Em                      G
A única roupa vai ser de cama
                     D  
Porque a sua blusa branca
                       A9
De champanhe, hoje eu vou molhar

Em                        G
Uma noite apenas vai ser pouca
                    D    
Tome love à queima roupa
                   A9
Um remember, hoje vai rolar
  Em                      G
A única roupa vai ser de cama
                     D  
Porque a sua blusa branca
                       A9
De champanhe, hoje eu vou molhar

 Em
Aí cê vai ter que tirar
 G                       
Aí cê vai ter que tirar
   D  A9    
Tirar
   Em  G  D  A9 
Tirar

E|------------------------------------------|
B|---------9-10-9h10p9----------------------|
G|-9h11-11-------------11-9-----------------|
D|--------------------------11--------------|
A|------------------------------------------|
E|------------------------------------------|

E|------------------------------------------|
B|----------9-10-9h10p9---------------------|
G|-11-11-11-------------11-9----------------|
D|---------------------------9--------------|
A|------------------------------------------|
E|------------------------------------------|

E|------------------------------------------|
B|---------9-10-9h10p9----------------------|
G|-9-11-11-------------11-9------11/13\11~--|
D|--------------------------11--------------|
A|------------------------------------------|
E|------------------------------------------|

[Pré-Refrão]

        G           
E essa volta demora 
        D                   A9
E você volta só segunda-feira
        Em           G
Uma pausinha na sua vida rotineira

[Refrão]

Em                        G
Uma noite apenas vai ser pouca
                    D    
Tome love à queima roupa
                   A9
Um remember, hoje vai rolar
  Em                      G
A única roupa vai ser de cama
                     D  
Porque a sua blusa branca
                       A9
De champanhe, hoje eu vou molhar

Em                        G
Uma noite apenas vai ser pouca
                    D    
Tome love à queima roupa
                   A9
Um remember, hoje vai rolar
  Em                      G
A única roupa vai ser de cama
                     D  
Porque a sua blusa branca
                       A9
De champanhe, hoje eu vou molhar

 Em
Aí cê vai ter que tirar
 G                       
Aí cê vai ter que tirar
   D  A9    
Tirar
   Em  G  D  A9  Em
Tirar

E|------------------------------------------|
B|---------9-10-9h10p9----------------------|
G|-9h11-11-------------11-9-----------------|
D|--------------------------11--------------|
A|------------------------------------------|
E|------------------------------------------|

E|------------------------------------------|
B|----------9-10-9h10p9---------------------|
G|-11-11-11-------------11-9----------------|
D|---------------------------9--------------|
A|------------------------------------------|
E|------------------------------------------|

E|------------------------------------------|
B|---------9-10-9h10p9----------------------|
G|-9-11-11-------------11-9------11/13\11~--|
D|--------------------------11--------------|
A|------------------------------------------|
E|------------------------------------------|

Clipes