busca

Young And Depressed

Mxpx

Tom: A
Intro
Intro Riff - 2x
e|-----------------------------------|
B|-----------------------------------|
G|-----------------------------------|
D|-----------------------------------|
A|--4--4-0-0-4-4-0-0-4-4-0-0-4-4-0---|
E|-----------------------------------|

Intro Riff (2)
    A5 A5                          B5 B5
e|-----------------------------------------------------------------|
B|-----------------------------------------------------------------|
G|-----------------------------------------------------------------|
D|-----------------------------------------------------------------|
A|--4--4-0-0-4-4-0-0-4-4-0-0-4-4-0-5--5-0-0-5-5-0-0-5-5-0-0-5-5-0--|
E|-----------------------------------------------------------------|

Intro Riff (2) (cont'd)
    D5 D5                          D5 D5
e|-----------------------------------------------------------------|
B|-----------------------------------------------------------------|
G|-----------------------------------------------------------------|
D|-----------------------------------------------------------------|
A|--7--7-0-0-7-7-0-0-7-7-0-0-7-7-0-7--7-0-0-7-7-0-0-7-7-0-0-7-7-0--|
E|-----------------------------------------------------------------|

    E5
e|-----------------|
B|-----------------|
G|--9-9-9-9-9-9-9--|
D|--9-9-9-9-9-9-9--|
A|--7-7-7-7-7-7-7--|
E|-----------------|

    A5                             B5
e|-----------------------------------------------------------------|
B|-----------------------------------------------------------------|
G|-----------------------------------------------------------------|
D|-----------------------------------------------------------------|
A|--4--4-0-0-4-4-0-0-4-4-0-0-4-4-0-5--5-0-0-5-5-0-0-5-5-0-0-5-5-0--|
E|-----------------------------------------------------------------|

    D5                             E5
e|-------------------------------------|
B|-------------------------------------|
G|---------------------------------9---|
D|---------------------------------9---|
A|--7--7-0-0-7-7-0-0-7-7-0-0-7-7-0-7---|
E|-------------------------------------|

Verse
           A5      B5
You've got so many problems
D5                 E5
No one else thinks you can solve them
A5            B5
Where did the time go
D5        E5
Everybody wants to know
A5           B5        D5        E5
Life goes on day after day after day
A5       B5          D5
Too much work and no play

Pre-Chorus
   F#5   D5   A5   E5   F5   F#m5   D5   E5   E5
e|------------------------------------------------|
B|----------------------------10------------------|
G|-------7---------9----10----11----7----9--------|
D|--4----7----7----9----10----11----7----9----2---|
A|--4----5----7----7-----8-----9----5----7----2---|
E|--2---------5-------------------------------0---|

F#5             D5               A5
When life seems like it cant get harder
     E5       F5           F#5
When you feel like a martyr
     D5                    E5
When you've lost all control
E5
That's when you've let the whole world know


Chorus
       A5          B5
You're young and depressed
        D5
With no future in this loneliness
       F#5         E5
You're young and depressed
           B5          C#5
But you're pretty well dressed
            D5          E5
Yeah you're pretty well dressed


Verse 2
       A5
I know that you've been hurting
So much has led up to this
Your eyes are burning
Hard times make the heart resist
A5           B5         D5          E5
All that you want is to follow your dreams
A5             B5          D5
They all fall apart at the seams

Pre-chorus

Chorus
       A5          B5
You're young and depressed
        D5
With no future in this loneliness
       F#5         E5
You're young and depressed
           B5          C#5
But you're pretty well dressed
            D5
Yeah you're pretty well...


[   bridge riff    ]
guitar 1
e|------------------------------------------------------------------------------------|
B|------------------------------------------------------------------------------------|
G|------6-----6-------6-----6-------6-----6-------4-----4-------2------------2-----2--|
D|--4-4---4-4---4-3-3---3-3---3-2-2---2-2---2-1-1---1-1---1-0-0---0-0--0-0-0---0-0----|
A|------------------------------------------------------------------------------------|
E|------------------------------------------------------------------------------------|

guitar 2
e|------------------------------------------------------------------------------------|
B|------------------------------------------------------------------------------------|
G|----------------1-------------2---------------4-------------7-----------------------|
D|--4---------------------------------------------------------------------------------|
A|------------------------------------------------------------------------------------|
E|------------------------------------------------------------------------------------|
Discontentment turns to anger turning sour every lonely hour
F5     A5      E5   F5
Yeah depression


[  Repeat bridge riff  ]
                                                             A5
Failed relations turn over a new leaf will it be a four leaf clover?
F5     A5      F5     A5       F5
Yeah obsession yeah depression yeah

Chorus (w/ stops)

Chorus (w/ main riff)
       A5          B5
You're young and depressed
        D5
With no future in this loneliness
       F#5         E5
You're young and depressed
           B5          C#5
But you're pretty well dressed
            D5          E5
Yeah you're pretty well dressed
   B5     C#5     D5    E5
No future in this loneliness
       B5          C#5
You're pretty well dressed
            D5
Yeah you're pretty well...

Clipes

Cifra Club Pro

Aproveite o Cifra Club com benefícios exclusivos e sem anúncios
7 dias grátis
Cifra Club Pro
Aproveite o Cifra Club com benefícios exclusivos e sem anúncios
7 dias grátis