Columbia

Oasis

Principal
A
123
X02220
C
123
X32010
D
123
XX0232
Tom: G
(Gallagher)

Lyrics by: N. Gallagher & L. Gallagher


Tab Key:

b = bend (7b8 means bend the string at the 7th fret to make approximately
the note that the string would make if it were played at the 8th fret with
no bend)
r = release bend
h = hammer on
p = pull off
x = mute the string with one of your fingers


NOTE: Though most of the song just goes from "A" to "D" to "C", here's how
Noel plays along with those basic chords when the guitar first comes in at
the beginning of the song until the first chorus:

#1t1#   A                              D               C             A  
#1t2#e----------------------------------------------------------------------------
B--2------------------------------3-----------------------------2------------
G--2----------------------------2-2-------------2-0-----------0-2------------
D--2----------------------------2-0-------------2-2-----------0-2------------
A--0----------------------------0-0-------------0-3-----------x-0------------
E-------------------------------------------------------------3--------------#/1t2##/1t1#

#2t1#Intro
#2t2#-----#/2t2##/2t1#

#3t1#   A                             D           C                A
#3t2#e---------------------------------------------------------------------------
B---------------------------------------------------------------------------
G-------------5h7-7b8r7--5-------5------5----5---------5h7-5----------------
D---------5h7---------------5h7-----7---5h7--5-----5h7--------7-------------
A---------------------------------------------------------------------------
E---------------------------------------------------------------------------#/3t2##/3t1#
#4t1#                         D           C
#4t2#e---------------------------------------------------------------------------
B---------------------------------------------------------------------------
G-----5h7-7b8r7--5--5h7--5------5----5--------------------------------------
D-5h7-----------------------7---5h7--5--------------------------------------
A---------------------------------------------------------------------------
E---------------------------------------------------------------------------#/4t2##/4t1#

#5t1#1st Verse
#5t2#---------#/5t2##/5t1#
A
There we were, now here we are
D                   C
All this confusion, nothing's the same to me
A
There we were, now here we are
D                   C
All this confusion, nothing's the same to me


#6t1#Chorus
#6t2#------#/6t2##/6t1#
    A
Now I can't tell you the way I feel
            D             C
Because the way I feel is oh-so new to me
A
I can't tell you the way I feel 
            D             C
because the way I feel is oh-so new to me


#7t1#Musical Interlude
#7t2#-----------------#/7t2##/7t1#

#8t1#   A                                   D                C      
#8t2#e---------------------------------------------------------------------------
B---------------------------------------------------------------------------
G--7-----6------------7-----6----------7-----6----------7-----5-------------
D-----7-----7--5h7-------7-----7--5h7-----7-----7--5h7-----7-----7--5h7-----
A---------------------------------------------------------------------------
E---------------------------------------------------------------------------#/8t2##/8t1#

#9t1#   A                                   D                C      
#9t2#e---------------------------------------------------------------------------
B---------------------------------------------------------------------------
G--7-----6------------7-----6----------7-----6----------7-----5-------------
D-----7-----7--5h7-------7-----7--5h7-----7-----7--5h7-----7-----7--5h7-----
A---------------------------------------------------------------------------
E---------------------------------------------------------------------------#/9t2##/9t1#

#10t1#2nd Verse
#10t2#---------#/10t2##/10t1#
What I heard is not what I hear
I can see the signs but they're not very clear
What I heard is not what I hear
I can see the signs but they're not very clear

#11t1#Chorus
#11t2#------#/11t2##/11t1#
I can't tell you the way I feel
Becuase the way I feel is oh-so new to me
I can't tell you the way I feel 
because the way I fell is oh-so new to me

   A                                   D                C      
                                     This is confusion, am I confusing you?
#12t1##12t2#e---------------------------------------------------------------------------
B---------------------------------------------------------------------------
G--7-----6------------7-----6----------7-----6----------7-----5-------------
D-----7-----7--5h7-------7-----7--5h7-----7-----7--5h7-----7-----7--5h7-----
A---------------------------------------------------------------------------
E---------------------------------------------------------------------------#/12t2##/12t1#

   A                                   D                C      
                                    This is confusion am I confusing you?
#13t1##13t2#e---------------------------------------------------------------------------
B---------------------------------------------------------------------------
G--7-----6------------7-----6----------7-----6----------7-----5-------------
D-----7-----7--5h7-------7-----7--5h7-----7-----7--5h7-----7-----7--5h7-----
A---------------------------------------------------------------------------
E---------------------------------------------------------------------------#/13t2##/13t1#

           A                           D              C
                                    This is confusion, am I amusing you?
        !e-----------------------------------------------------------------
        !B-----------------------------------------------------------------
guitar  !G-7---6---------7---6---------7---6----------7---5----------------
#2      !D---7---7--5h7----7---7--5h7----7---7--5h7-----7---7--5h7---------
        !A-----------------------------------------------------------------
        !E-----------------------------------------------------------------
        !
        !
        !e--12------12---12-----12----12----12-----12----12---12-----12----
        !B--15b17----b17--b17---15b17--b17---b17---15b17--b17--b17---15b17-
guitar  !G-----------------------------------------------------------------
#3      !D-----------------------------------------------------------------
        !A-----------------------------------------------------------------
        !E-----------------------------------------------------------------

           A                           D              C
                                   This is peculiar, we don't want to fool
                                                                        yer 
        !e-----------------------------------------------------------------
        !B-----------------------------------------------------------------
guitar  !G-7---6---------7---6---------7---6----------7---5----------------
#2      !D---7---7--5h7----7---7--5h7----7---7--5h7-----7---7--5h7---------
        !A-----------------------------------------------------------------
        !E-----------------------------------------------------------------
        !
        !
        !e--12------12---12-----12----12----12-----12----12---12-----12----
        !B--15b17----b17--b17---15b17--b17---b17---15b17--b17--b17---15b17-
guitar  !G-----------------------------------------------------------------
#3      !D-----------------------------------------------------------------
        !A-----------------------------------------------------------------
        !E-----------------------------------------------------------------

#14t1#   A
#14t2#e---------------------------------------------------------------------------
B---------------------------------------------------------------------------
G---------------------------------------------------------------------------
D---------------------------------------------------------------------------
*#/14t2##/14t1#
*

#15t1#   D                             C      
#15t2#e---------------------------------------------------------------------------
B---------------------------------------------------------------------------
G---------------------------------------------------------------------------
D---------------------------------------------------------------------------
A---------0-0-0--3p0--5p0--3--5--5b6r5----3---------------------------------
*#/15t2##/15t1#

#16t1#   A                                             D
#16t2#e------------------------------------------------------------------------
B------------------------------------------------------------------------
G--7b8r7--5h7-5-----5--7--7b8r7--5h7-5-----5--7--7b8r7--5-------------5--
D----------------7----------------------7------------------7------5h7----
A-------------------------------------------------------------5h7--------
E------------------------------------------------------------------------#/16t2##/16t1#


#17t1#   C                       A
#17t2#e-----------------------------------------------------------------------
B-----------------------------------------------------------------------
G--7b8r7--5-------------5--7b8r7--5h7-5-----5--7--7b8r7--5h7-5-----5--7-
D------------7------5h7------------------7----------------------7-------
A---------------5h7-----------------------------------------------------
E-----------------------------------------------------------------------#/17t2##/17t1#

#18t1#  D                        C                          A
#18t2#e---------------------------------------------------------------------------
B---------------------------------------------------------------------------
G-7b8r7--5h7-5-------------5-----5------------5h7-5---7b8r7--5h7-5----------
D---------------7---5h7-------7-----7-----5h7-----------------------7--5h7--
A---------------------------------------------------------------------------
E---------------------------------------------------------------------------#/18t2##/18t1#
 
#19t1#                          D                     C
#19t2#e---------------------------------------------------------------------------
B---------------------------------------------------------------------------
G-7b8r7--5h7-5------------7b8r7--5h7-5----------7b8r7--5--7b8r7--5--7b8r7---
D---------------7--5h7------------------7--5h7------------------------------
A---------------------------------------------------------------------------
E---------------------------------------------------------------------------#/19t2##/19t1#
  
#20t1#  A                                             D                     C
#20t2#e---------------------------------------------------------------------------
B---------------------------------------------------------------------------
G-7b8r7--5h7-5------------7b8r7--5h7-5----------7b8r7-7-7b8r7-7-7b8r7-7b8r7-
D---------------7--5h7------------------7--5h7------------------------------
A---------------------------------------------------------------------------
E---------------------------------------------------------------------------#/20t2##/20t1#

#21t1#            A                               D       C                 A
#21t2#e---------------------------------------------------------------------------
B---------------------------------------------------------------------------
G-7-7b8r7-7-----------------------------------------------------------------
*#/21t2##/21t1#
#22t1##22t2#A---------------------------------------------------------------------------
E---------------------------------------------------------------------------#/22t2##/22t1#

#23t1#                             D        C              A
#23t2#e---------------------------------------------------------------------------
B---------------------------------------------------------------------------
G---------------------------------------------------------------------------
*#/23t2##/23t1#
#24t1##24t2#A---------------------------------------------------------------------------
E---------------------------------------------------------------------------#/24t2##/24t1#

#25t1#              D       C                                A
#25t2#e---------------------------------------------------------------------------
B---------------------------------------------------------------------------
G---------------------------------------------------------------------------
*#/25t2##/25t1#
#26t1##26t2#A---------------------------------------------------------------------------
E---------------------------------------------------------------------------#/26t2##/26t1#
Composição: Noel GallagherColaboração e revisão: