busca

Roll With It

Oasis

Tom: G
Intro
-----
D7  C9  G        D7  C9  G       D7  C9  G    D7  C9  A  
(O "A" é acompanhado dessa viradinha rápida: A Asus2 A Asus4 A Asus2 A)
verso 1
-------
G
You gotta roll with it, you gotta take it slow, 

you gotta say what you say, don't let anybody get in your way,
Cadd9      G/B     Asus4          G
 'coz it's all too much for me to take
G
Don't ever stand aside, don't ever be denied,

you wanna be who'd be if you're coming with me
  Cadd9            G/B          Asus4
I think I've got a feeling I've lost inside
  Cadd9           G/B      Asus4
I think I'm gonna take me away and hide
    Cadd9       G/B         D             G
I'm thinking of things that I just can't abide
Refrão
------
  F                                        G
I know the roads down which your life will drive
  F                                  G
I found the key that lets you slip inside
F                                  G
kiss the girl she's not behind the door
F    
I know I think I recognize your face
         C                D
but I've never seen you before

tab for the end of chorus:

  but I've never seen you before
Verso 2
Refrão
Verso de novo
I think I've got a feeling I've lost inside

SOLO                              ! bem rapido !
B|----------------------------------------------------------------!
G|----------------------------------------------------------------!
D|--9~9~~9~9~~9b10-9b10-7-5----5------5h7p5---5----5-7-7b9r7--5---!
A|--------------------------------5h7-------7----7----------------!

B|----------------------------------------------------------------!
G|---------------------------------7------------------------------!
D|--10--10--9/7--7/5--5----5--7/9-----9/7--5----------------------!
A|----------------------------------------------------------------!

B|---------------------------------------8--10-10b-10b-10b-8-10b--!

G|---------------------------------7--9---------------------------!   G depois do solo
D|--10--10--9/7--7/5--5----5--7/9---------------------------------!
A|----------------------------------------------------------------!

Clipes