busca

The Hindu Times

Oasis

Tom: B
riff inicial:

           B               B                B             E            B
E |--------------------------------------------------------------------
B |--------------------------------------------------------------------
G |------8h9-8-------8-9-9b(10)--8-------8h9-8--------8-9-9b(10)--8----
D |-------------------------------------9------------------------------
A |--------------------------------------------------------------------
E |--------------------------------------------------------------------

Verse :
B
i get up when i'm down
B                   E
i can't swim But My Soul Won't Drown
B
i do believe-igot flare
B                        E
i got speed and i walk on air
Chorus:
E                        B
cos God gimme me a soul and all rock´n´roll(babe)

E                        B
cos god gimme me a soul and all rock´n´roll(babe)
      F#            E                  B
and i get so high i just can´t feel it
      F#            E                  D
and i get so high i just can't feel it

Bridge (or whatever):
D             E              G
in and out my brain,runnin´ to my veins
                             A
you're my sunshine
          B
you're my rain

          B               B                B             E            B
E |--------------------------------------------------------------------
B |--------------------------------------------------------------------
G |------8h9-8-------8-9-9b(10)--8-------8h9-8--------8-9-9b(10)--8----
D |-------------------------------------------------------------------
A |--------------------------------------------------------------------
E |--------------------------------------------------------------------

2nd Verse:
B
i get up when i'm down
B                      E
i can't see where the sun goes down
B
cos i believe in my freind
B                        E
and i'll scream when i'm walkin away

2nd Chorus:
E
cos god gave me a soul
                B
for my rock n' roll man
E
god gave me a soul
                B
for my rock n' roll man
      F#            E                  B
I can get so high i just can't feel it
      F#            E                  D
I can get so high i just can't feel it

2nd Bridge:
D             E
cos your the faith
                   G
running through my veins
          A
you're my sunshine
          B
you're my rain

solo bit:
          B               B                B            B             E
E |--------------------------------------------------------------------
B |--------------------------------------------------------------------
G |------8h9-8-------8-9-9b(10)--8-------8h9-8--------8-9-9b(10)--8----
D |-----------------9-------------------9------------9------------------
A |--------------------------------------------------------------------
E |--------------------------------------------------------------------

        E                    E                 B                B
E |------------------------------------------------------------------------------
B |-------------------------------------------------------------------------------
G |---13h14-13---------13-14-14b(15)--13------8h9-8-------8-9-9b(10)--8------------
D |------------------14----------------------------------9--------------------------
A |---------------------------------------------------------------------------------
E |---------------------------------------------------------------------------------

       E                    E                 B
E |------------------------------------------------------------------------------
B |-------------------------------------------------------------------------------
G |---13h14-13---------13-14-14b(15)--13------8h9-8-------8-9-9b(10)--8------------
D |------------------14----------------------------------9--------------------------
A |---------------------------------------------------------------------------------
E |---------------------------------------------------------------------------------

straight back to here:

      F#            E                  B
I can get so high i just can't feel it
      F#            E                  D
I can get so high i just can't feel it

3rd Bridge:
D             E
cos your the faith
                   G
running through my veins
          A
you're my sunshine
          B
you're my rain

Final Intro riff:

          B               B                B             B           B
E |--------------------------------------------------------------------
B |--------------------------------------------------------------------
G |------8h9-8-------8-9-9b(10)--8-------8h9-8--------8-9-9b(10)--8----
D |--------------------------------------------------9-----------------
A |--------------------------------------------------------------------
E |--------------------------------------------------------------------

          B               B                B             B           B
E |--------------------------------------------------------------------
B |--------------------------------------------------------------------
G |------8h9-8-------8-9-9b(10)--8-------8h9-8--------8-9-9b(10)--8----
D |-----9-----------9---------------------------------9----------------
A |--------------------------------------------------------------------
E |--------------------------------------------------------------------

end on a B

Clipes