A
123
X02220
A#º
123
X12020
A/C#
1234
X4X255
A4/7
12
X02030
A7
12
X02020
A7/4
12
X02030
Bm
234
X24432
Bm7
34
X24232
Bm7/A
234
524232
D
123
XX0232
E/G#
1234
4X245X
F#7(b13)
34
2X2332
F#m7
1234
2X222X
G
123
320003
G6
1234
3X243X
Gm6
1234
3X233X
Tom: G
#1t1#(intro)
                D                   Bm7                F#m7            G
#1t2#E|-3p2-0-2-------------3p2-0-2-------------3p2-0-5------------2-----------|
B|---------3------3------------3------3-------------------2-----2------3--|
G|--------------2---2---------------2---2---------------2--------------4--|
D|------------0---------------------------------------4--------------5----|
A|--------------------------------2---------------------------------------|
E|--------------------------------------------------2--------------3------|#/1t2##/1t1#
#2t1# |           h.a.
#2t2#E|------------------------------------------------------------------------|
B|------------------------------------------------------------------------|
G|-------------7----------------------------------------------------------|
D|-----------7------------------------------------------------------------|
A|------------------------------------------------------------------------|
E|------------------------------------------------------------------------|#/2t2##/2t1#

#3t1#     D                             Bm7                F#m7            G       G6
#3t2#E|-3p2-0-2-------------3p2-0-2-------------3p2-0-5------------2----------------0--|
B|---------3------3------------3------3-------------------2-----2------3---3-3----|
G|--------------2---2---------------2---2---------------2--------------4---3------|
D|------------0---------------------------------------4--------------5-----2------|
A|--------------------------------2-----------------------------------------------|
E|--------------------------------------------------2--------------3-------3------|
 |#/3t2##/3t1#
#4t1##4t2#E|-----------2-------------------2------------------2--------------3-------0------|
B|-----------3-------------------3------------------2--------------3-------3------|
G|-----------2-------------------2------------------2--------------4-------3------|
D|-----------0-------------------4------------------4--------------5-------2------|
A|-------------------------------2------------------4--------------5-------0------|
E|--------------------------------------------------2--------------3-------3------|#/4t2##/4t1#

#5t1#(interludio)
     D
#5t2#E|----2h0-2---------|
B|---3-----3--------|
G|--2-------2-------|
D|-0----------------|
A|------------------|
E|------------------|#/5t2##/5t1#

#6t1#(variação 1)                (variação 2)
   G            G6
#6t2#E|----------------------0---|---------------------|
B|-------3-5-0--------3---0-|-------3-5-0------3--|
G|-----4------------3-------|-----4------------3--|
D|---5------------2---------|---5------------2----|  
A|--------------------------|---------------------|
E|-3------------3-----------|-3------------3------|#/6t2##/6t1#

(intro) D Bm F#m7 G D Bm F#m7 A4/7 A7

D       A/C#   F#7(b13)   Bm
Céu azul os dois pés na água,
   Bm7/A     E/G#
Aonde o mar acaba,
    A7    A#º       G      Gm6  D
O frio, a tarde, a solidão,
        A/C#     F#7(b13)  Bm
Duas mãos vão rasgando as cartas
 Bm7/A     E/G#
Lavando as mágoas,
   A7   A#º G      Gm6 D
Assim é o amor em vão

         Bm                  F#m7
Cada canção de amor abre a ferida
        A7 A7/4   D
Que não vê fim
         Bm                 F#m7
Cada fração da dor agora é chuva,
 A7 A7/4
Cai em mim
     G    A      Bm
Mas tudo vai passar
     A/C#      G  Gm6
Como tudo passa
Composição: Herbert Vianna / Paulo RicardoColaboração e revisão: Eduardo MartinsLucas SiqueiraAnatole KlapouchIvan Viraginee mais 1