busca

Amor Em Vão

Os Paralamas do Sucesso

Tom: D
(intro)
                D                   Bm7                F#m7            G
E|-3p2-0-2-------------3p2-0-2-------------3p2-0-5------------2-----------|
B|---------3------3------------3------3-------------------2-----2------3--|
G|--------------2---2---------------2---2---------------2--------------4--|
D|------------0---------------------------------------4--------------5----|
A|--------------------------------2---------------------------------------|
E|--------------------------------------------------2--------------3------|
 |           h.a.
E|------------------------------------------------------------------------|
B|------------------------------------------------------------------------|
G|-------------7----------------------------------------------------------|
D|-----------7------------------------------------------------------------|
A|------------------------------------------------------------------------|
E|------------------------------------------------------------------------|

     D                             Bm7                F#m7            G       G6
E|-3p2-0-2-------------3p2-0-2-------------3p2-0-5------------2----------------0--|
B|---------3------3------------3------3-------------------2-----2------3---3-3----|
G|--------------2---2---------------2---2---------------2--------------4---3------|
D|------------0---------------------------------------4--------------5-----2------|
A|--------------------------------2-----------------------------------------------|
E|--------------------------------------------------2--------------3-------3------|
 |
E|-----------2-------------------2------------------2--------------3-------0------|
B|-----------3-------------------3------------------2--------------3-------3------|
G|-----------2-------------------2------------------2--------------4-------3------|
D|-----------0-------------------4------------------4--------------5-------2------|
A|-------------------------------2------------------4--------------5-------0------|
E|--------------------------------------------------2--------------3-------3------|

(interludio)
     D
E|----2h0-2---------|
B|---3-----3--------|
G|--2-------2-------|
D|-0----------------|
A|------------------|
E|------------------|

(variação 1)                (variação 2)
   G            G6
E|----------------------0---|---------------------|
B|-------3-5-0--------3---0-|-------3-5-0------3--|
G|-----4------------3-------|-----4------------3--|
D|---5------------2---------|---5------------2----|  
A|--------------------------|---------------------|
E|-3------------3-----------|-3------------3------|

(intro) D Bm F#m7 G D Bm F#m7 A4/7 A7

D       A/C#   F#7(b13)   Bm
Céu azul os dois pés na água,
   Bm7/A     E/G#
Aonde o mar acaba,
    A7    A#º       G      Gm6  D
O frio, a tarde, a solidão,
        A/C#     F#7(b13)  Bm
Duas mãos vão rasgando as cartas
 Bm7/A     E/G#
Lavando as mágoas,
   A7   A#º G      Gm6 D
Assim é o amor em vão

         Bm                  F#m7
Cada canção de amor abre a ferida
        A7 A7/4   D
Que não vê fim
         Bm                 F#m7
Cada fração da dor agora é chuva,
 A7 A7/4
Cai em mim
     G    A      Bm
Mas tudo vai passar
     A/C#      G  Gm6
Como tudo passa

Clipes