busca

Flores No Deserto

Os Paralamas do Sucesso

Tom: G
Intro:
E|---------------------------|----------------------------------------------------
B|--3---3----3---3---3----3--|----------------------------------------------------
G|--2---0/2--4---2---0----2--|-------0----2------0----2----------0---2-----0---2--
D|--0---0----0---0---0----0--|-----4----4------4----4---4------4---4-----4---4---4
A|---------------------------|---2-----------2---------------3---------3----------
E|---------------------------|-0--------------------------------------------------

                                                solo:("Uns Dias-ao vivo")
E|------------------------------------------0--|-----------------------------------------------
B|--------------------------------0-------0----|-----------------------------------------------
G|------4---2------4---2------2---------2------|-5--5-7--4--------4----4h5--5-7--4--------4----
D|----2---2------2---2------1---1-----1--------|-----------5--5-7---7--------------5--5-7---7--
A|--0----------0----------2---------2----------|-----------------------------------------------
E|---------------------------------------------|-----------------------------------------------


[Intro:] D    Em C Am B7

Em             C
Um dia posso até pagar por isso
Am                     B7
o impossível é meu mais antigo vício
Em             C
Ou então um delírio do meu coração
Am                             B7
e ver as coisas onde as coisas não estão

C                C#m7(b5)
Tão certo como flores no deserto
  G                          D
real como as miragens da paixão

Em               C
    Havia inocência em seu sorriso
Am                       B7
    enquanto caminhava rente ao precipício
Em               C
    estava calmo por acreditar em perfeição
Am                       B7
    Tá qual o tolo da colina na canção

Solo: C Em D

Clipes