busca

Soldado da Paz

Os Paralamas do Sucesso

Tom: E
Os Paralamas do Sucesso - Soldado da Paz

Tom: A

RIFF 1 
E|------------------------------------------ 
B|------------------------------------------ 
G|------2-----2-----2------2---------------- 
D|----2-----2------2------2----------------- 
A|--0-----2--------------------------------- 
E|--------------2-----0---------------------

RIFF 2
E|------------------------------------------------------ 
B|-------3------------3-------------3------------2------ 
G|-----2---2--------2---2---------4---4--------2---2---- 
D|--0--------0------------------4-------4----2-------2-- 
A|---------------4--------4---2------------0------------ 
E|------------------------------------------------------ 


RIFF 1 
Não há perigo
Que vá nos parar

RIFF 2
Se o bom de viver é estar vivo
Ter amor, ter abrigo
Ter sonhos, ter motivos pra cantar

RIFF 1
Armas no chão
Flores nas mãos

RIFF 2
E o bom de viver é estar vivo
Ter irmãos, ter amigos
Vivendo em paz
Prontos pra lutar

   G
O soldado da paz
Não pode ser derrotado
F#m
Ainda que a guerra pareça perdida
    B7
Quanto mais se sacrifica a vida
       E
Mais a vida e o tempo / São seus aliados

RIFF 1
Armas no chão
Flores nas mãos

SOLO 
E|-----------------------------------------------------
B|------------------------------------------------2----
G|--------2-----2--4--4/6--4--2--2-------2-2-2----2----
D|---2--4---0--------------------2--2--4---0---4--2----
A|-------------------------------4---------2------0----
E|----------------------------------------------------- 

E|-------------------------------------------------------- 
B|-------------------------------------------------------- 
G|---------------------------------------1---------------- 
D|--------2----2--4--4/6--4--2--2--4--2--2---------------- 
A|---2--4---0-------------------2--------2---------------- 
E|------------------------------4--------0---------------- 

   G
O soldado da paz
Não pode ser derrotado
F#m
Ainda que a guerra pareça perdida
    B7
Quanto mais se sacrifica a vida
       E
Mais a vida e o tempo / São seus aliados

RIFF 1
Não há perigo
Que vá nos parar

RIFF 2
Se o bom de viver é estar vivo
Ter amor, ter abrigo
Ter sonhos, ter motivos pra cantar

Clipes