Love of My Life

Queen

A
123
X02220
A7
12
X02020
Bm
234
X24432
D
123
XX0232
D#º
1234
XX1212
D9/F#
123
2X0230
E
123
022100
Em
12
022000
F#
234
244322
F#m
34
244222
G
123
320003
G6
1234
3X243X
G6(9)
1234
XX5455
Gm
34
355333
Tom: G
[Intro] D  Bm  Em  A  A7
        D  Bm  G6  D9/F#  E


[Tab - Intro]

Parte 1 De 4
   D              Bm
E|-------2--------------2---------
B|-3-2-3-------3--3-2-3---3-------
G|-2---------2----4---------4-----
D|-0-------0------4-----------4---
A|----------------2---------------
E|--------------------------------



Parte 2 De 4
    Em               A           
E|--0----3-----------------------
B|--0--------3---2---2---3---5---
G|--0------0---0---0-2---0---0---
D|-----2-------------2---4---5---
A|-------------------0-0---0---0-
E|--0----------------------------
  A7
E|----------| 
B|2---------| 
G|0---------| 
D|2---------| 
A|----------| 
E|----------| 



Parte 3 De 4
   D              Bm
E|-------2--------------2---------
B|-3-2-3-------3--3-2-3---3-------
G|-2---------2----4---------4-----
D|-0-------0------4---------------
A|----------------2-----------0---
E|--------------------------------



Parte 4 De 4
    G6       D9/F#     E
E|--7----------5-------0---------
B|--5---5----------5---0---0---0-
G|--7-7---7------7---7-1---2---4-
D|--5--------4-------------4---6-
A|-------------------------------
E|---------------------0-0---0---

E|----------| 
B|--0-------| 
G|--7-------| 
D|--9-------| 
A|----------| 
E|0---------| 


[Primeira Parte]


[Tab - Primeira Parte]

Parte 1 De 4
    A             F#m        Bm
E|--------0--------------2-------
B|--------------2----------2-3-2-
G|--2-1-2-----2--------------4---
D|--2-------2---------4------4---
A|--0---------------4--------2---
E|----------------2--------------

E|--2------------------| 
B|3---3----------------| 
G|---------------------| 
D|---------------------| 
A|---------------------| 
E|---------------------| 



    E
E|--0-----------------------------
B|--0----0---0---0----------------
G|--1----2---4---7----------------
D|-------4---6---9----------------
A|--------------------------------
E|--0--0---0---0------------------



Parte 2 De 4
   A    G6(9) A7 D     Bm  F#m G     
E|-------0------------2----------
B|-2-0---0---2------3---3--2-----
G|-2---2-2---0----2-----4--2-----
D|-2-----5---2--0-------4--4-----
A|-0---------0----------2--------
E|-------------------------2---3-
    D
E|----3-2--------------| 
B|----3-3-3------------| 
G|--0---2---2----------| 
D|0-----0--------------| 
A|---------------------| 
E|---------------------| 



      G  D  Bm Em A7
E|----2---------------------------
B|-3--3--3--0--------2------------
G|-0--2--4--0------0---0----------
D|-0--0--4--2----2----------------
A|-------2-----0------------------
E|-3--------0---------------------



Parte 3 De 4
      D
E|-----2---7---5---3----2---------
B|-----3---8---7---5----3---------
G|---2------------------2---------
D|-0-----0---0---0---0--0---------
A|--------------------------------
E|--------------------------------



    G6         D9/F#   E
E|--7--------5-------0-----------
B|--5---5--------5---0-----------
G|--7-7---7----7---7-1---2---4---
D|--5--------4-----------4---6---
A|-------------------------------
E|-------------------0-0---0---0-

E|---------------------| 
B|---------------------| 
G|7--------------------| 
D|9--------------------| 
A|---------------------| 
E|---------------------| 



Parte 4 De 4
   D
E|-------2------------------------
B|-----3---3----------------------
G|---2----------------------------
D|-0------------------------------
A|--------------------------------
E|--------------------------------


 A                      F#m
Love of my life you've hurt me
         Bm                 E
You've broken my heart and now you 
leave me
A G6(9) A7 D Love of my life can't you see Bm F#m Bring it back, bring it back G D G Don't take it away from me, because D Bm Em A7 D You don't know, what it means to me ( G6 D9/F# E ) A F#m Love of my life don't leave me Bm E You've stolen my love, and now desert me A G6(9) A7 D Love of my life can't you see Bm F#m Bring it back, bring it back G D G Don't take it away from me, D because you Bm Em A7 D Don't know, what it means to me [Segunda Parte] [Tab - Segunda Parte] Parte 1 De 4 Bm F#m G E|---------2--------------------3- B|-------3----------2---------3--- G|-----4-4----------2-2-----0-0--- D|---4------------4-------0------- A|-2------------4----------------- E|------------2---------3--------- Parte 2 De 4 D F# Bm F#m E|-2---3---5----2----------2------ B|-3---5---7----2--------3-------- G|-2------------3------4-4-------- D|-0-0---0---0--4----4------------ A|--------------4--2------------4- E|--------------2-------------2--- E|--------------------| B|--2-----------------| G|--2-----------------| D|4-------------------| A|--------------------| E|--------------------| Parte 3 De 4 D#º Em A E|-2--2--2-----------0----------- B|-1--1--1---------0---2---3---5- G|-2--2--2---------0---2---0---0- D|-1--1--1-------2-----2---4---5- A|-------------2-------0-0---0--- E|-----------0------------------- E|---------------------| B|--10-----------------| G|--0------------------| D|--11-----------------| A|0--------------------| E|---------------------| Parte 4 De 4 E|-------5---5-------------------- B|-----7-------7------------------ G|---7-----6-----6---------------- D|-0------------------------------ A|-------------------------------- E|-------------------------------- Bm F#m You will remember When this is blown over G D F# And everything's all by the way Bm F#m When I grow older I will be there D#º At your side to remind you Em A How I still love you I still love D you [Final] [Tab - Final] Bm F#m Em Gm E|--------------------------6---5- B|-------3-------2-----0----3---3- G|-----4---------2-----0----3-3--- D|---4---------4-----2---2--5----- A|-2---------4-------------------- E|---------2-------0-------------- D E|-2------------------| B|-3------------------| G|-2------------------| D|-0------------------| A|--------------------| E|--------------------| Bm Love of my life F#m Em Gm D Love of my life, humm
Composição: Freddie MercuryColaboração e revisão: Lucas KappaunRodrigo SilveiraRégis PereiraGuilherme Rodriguese mais 1
Videoaula Love Of My Life (aula de violão)