Bohemian Rhapsody

Queen

A
123
X02220
A#
234
X13331
A#°
123
X12020
A7
12
X02020
Am
123
X02210
Am/E
123
0X2210
Am/F
1234
1X221X
Am/F#
1234
2X2210
Am/G
1234
3X221X
Am/G#
1234
XX6555
Am7
12
X02010
B
234
X24442
B/F#
1234
XX4442
B7
1234
X21202
Bb
234
X13331
C
123
X32010
C#7
1234
X4342X
234
X34242
D
123
XX0232
D7
123
XX0212
Dm
123
XX0231
Dm/B
1234
X2X231
Dm/C
1234
X3X231
Dm/C#
1234
X4323X
E7
1
0X0010
Em
12
022000
F
234
133211
F#
234
244322
F#°
1234
2X121X
Fm
34
133111
G
123
320003
G#
234
431114
G#m
34
466444
G/B
123
X20033
G6
1234
3X243X
G7
34
353433
Gm/A#
1234
6553XX
Tom: G
[Primeira Parte]

G6
  Is this the real life?
A7
  Is this just fantasy?
 D7
Caught in a landslide
 G
No escape from reality

Em
Open your eyes
     G7                   C
Look up to the skies and see
Am
I'm just a poor boy
D7
I need no sympathy
            G#    G     F#   G 
Because I'm easy come, easy go
 G#     G     F#     G
Little high, little low
C           G
Anyway the wind blows
 A#°            D7        
Doesn't really matter to me
    G6
To me

[Segunda Parte]

#1t1#[Dedilhado]

   G6
#1t2#E|---------0----------------0-------------------------|
B|-------0-----3----------0-----3---------------------|
G|-----0----------------0-----------------------------|
D|---0-------0---0----0-------0---0-------------------|
A|----------------------------------------------------|
E|-3----------------3---------------------------------|#/1t2##/1t1#

#2t1#                     Em
#2t2#E|---------0-----------------2---0--------------------|
B|-------0-----3-----------0--------------------------|
G|-----0-----------------0----------------------------|
D|---0-------0---0-----2-------2---2------------------|
A|----------------------------------------------------|
E|-3-----------------0--------------------------------|#/2t2##/2t1#

#3t1#   Am
#3t2#E|---------7---5--------------------------------------|
B|-------5--------------------------------------------|
G|-----5----------------------------------------------|
D|---7-------7---7------------------------------------|
A|-0--------------------------------------------------|
E|----------------------------------------------------|#/3t2##/3t1#
 
 G6         Em
Mama, just killed a man
       Am
Put a gun against his head
                             D
Pulled my trigger, now he's dead
 G6             Em
Mama, life had just begun
     Am                  Am/G#  Am/G  Am/F#  Am/F  Am/E 
But now I've gone and thrown it all        away

 C   G/B      Am
Mama uh uh uh uh
        Dm           Dm/C#  Dm/C  Dm/B
Didn't mean to make you   cry
   G6             G7               C
If I'm not back again this time tomorrow
      G/B       Am
Carry on, carry on
       Fm             C     
As if nothing really matters

[Riff 1] 

#4t1##4t2#E|------8---8---8---8---------------------------------|
B|-1/10---8---7---6-----------------------------------|
G|----------------------------------------------------|
D|----------------------------------------------------|
A|----------------------------------------------------|
E|----------------------------------------------------|#/4t2##/4t1#

[Segunda Parte]

( G6 )

 G6           Em
Too late, my time has come
        Am
Sends shivers down my spine
                       D
Body's aching all the time
 G6  
Goodbye everybody
      Em
I've got to go
       Am              Am/G# 
Gotta leave you all behind
     Am/G  Am/F#         Am/F  Am/E
And face        the truth

 C   G/B      Am
Mama uh uh uh uh
(Anyway the wind blows)
Dm          Dm/C# Dm/C  Dm/B
I don't wanna    die
   G6                 G7
I sometimes wish I'd never been born at all

[Solo] C  G/B  Am  Dm
       Dm/C#  Dm/C  Dm/B  G
       C  G/B  Am  Dm
       Dm/C#  Dm/C  Dm/B  G

[Solo Sem Capo]

#5t1##5t2#E|----------------------------------------------------|
B|-----------------11~---8--11b13~--------------------|
G|------10b12r10p8------------------------------------|
D|-8~-------------------------------------------------|
A|----------------------------------------------------|
E|----------------------------------------------------|#/5t2##/5t1#

#6t1##6t2#E|-------------------------------15-16-18-b20~r-------|
B|-13--15-16-13--15-16-b18----18----------------------|
G|----------------------------------------------------|
D|----------------------------------------------------|
A|----------------------------------------------------|
E|----------------------------------------------------|#/6t2##/6t1#

#7t1##7t2#E|-16-15-16-15h16p15----15----------------------------|
B|-------------------18----18-16-15-16-15h16p15----15-|
G|----------------------------------------------17----|
D|----------------------------------------------------|
A|----------------------------------------------------|
E|----------------------------------------------------|#/7t2##/7t1#

#8t1##8t2#E|----------------------------------------------------|
B|----------------------------------------------------|
G|-17-15-15~------------------------------------------|
D|----------------------------------------------------|
A|----------------------------------------------------|
E|----------------------------------------------------|#/8t2##/8t1#

#9t1##9t2#E|-------------------15-16-18-------------------------|
B|----------15-16-18----------------------------------|
G|-15~---17-------------------------------------------|
D|----------------------------------------------------|
A|----------------------------------------------------|
E|----------------------------------------------------|#/9t2##/9t1#

#10t1##10t2#E|-----~----------15-16-18-b20~-----------------------|
B|-------15-16-18-------------------------------------|
G|-15-17----------------------------------------------|
D|----------------------------------------------------|
A|----------------------------------------------------|
E|----------------------------------------------------|#/10t2##/10t1#

#11t1##11t2#E|----------------------------------------------------|
B|-15-16-13--15-16-13--15-16-b18~---------------------|
G|----------------------------------------------------|
D|----------------------------------------------------|
A|----------------------------------------------------|
E|----------------------------------------------------|#/11t2##/11t1#

#12t1##12t2#E|------------13--------------------------------------|
B|-----------------------14--14-14-14\----------------|
G|-10-12-13~-------13~-----------------------6h7p6\2--|
D|----------------------------------------------------|
A|----------------------------------------------------|
E|----------------------------------------------------|#/12t2##/12t1#

[Terceira Parte]

B/F#  F#      F#°     F#  B/F#   F#      F#°
I    see  a  little  silhouetto  of  a  man
F#     B/F#    F# B/F#   F#        F#°      F# B/F#  F#
  Scarmouch  Scarmouch  will  you do  the  fandango?
Bb                      F           A            C#7         F#
  Thunder  bolts  and  lightening  very  very  frightening  me

Galileo Galileo Galileo Galileo Galileofigaro mangnifico oh oh oh

[Quarta Parte]

G#    G        F#    G    G#  G     F#     G
I'm  just  a  poor  boy  no__body  loves  me
F       C      G    C     F     C    G   C
  He's just a poor boy, from a poor family
F                C              D7       G
  Spare him his life from this monstrosity

[Riff 2]

#13t1##13t2#E|----------------------------------------------------|
B|---1---1---1---1------------------------------------|
G|-2---0----------------------------------------------|
D|---------4---3--------------------------------------|
A|----------------------------------------------------|
E|----------------------------------------------------|#/13t2##/13t1#

G#      G    F#    G  G#       G      F# 
  Easy come  easy go will you let me go?

G     C  G  C                         G
  Bismillah  no, we will not let you go (let  him  go)
G     C  G
  Bismillah we will not let you go (let him go )
G     C  G
  Bismillah we will not let you go (let him go )

Will not let you go let me go will not let you go

[Quinta Parte]

Let  me  go oh  oh  oh  oh oh
G#m    F# B  A# A  G  C  
   No no no no no no no  
                            F   C  G
Oh mamamia mamamia mamamia let me go
  C    F        B7         Em       G
Beelzebu has a devil put aside for me for me for me

( C  D7 )

[Sexta Parte]

G7                                    C        G7  A#    
  So you think you can stone me and spit in my eye?
G7                                  C           F
  So you think you can love me and leave me to die?
Dm     G
  Oh, baby!
Dm                      G
  Can't do this to me, baby!
Dm               G
  Just gotta get out
Dm                G           C
  Just gotta get right outta here!

( C  D7  E7  G#m  F  G )

C  G/B  Am  E7  Am    E7   Am7  E7  Am   
            Oh, yeah! Oh, yeah!

( B  Em  F  C )

[Parte Final]

Am                Em
  Nothing really matters
Am          Em
Anyone can see
Am                Fm
  Nothing really matters
 F                         C
Nothing really matters to me

( F#°  G  Gm/A#  A  A7  A  D )

G    C           A7  C
Any way the wind blows
Composição: Freddie MercuryColaboração e revisão: Thiago AlmeidaMarcos PauloDiego CostaYuri Monteiroe mais 2
Videoaula BOHEMIAN RHAPSODY (aula de violão simplificada)