busca

Come Together

The Beatles

Tom: D
Intro 4x: Dm

      D5
E|---------------------------------------------------|
B|---------------------------------------------------|
G|---------------------------------------------------|
D|--------------10~----------------10~---------------|
A|-12-12--10/12---~---12-12--10/12---~---------------|
E|-10-10--------------10-10--------------------------|


Primeira parte:
D5
  Here come old flat top, he come
Grooving up slowly, he got
Joo Joo eyeball, he one
Holy roller, he got

 A5
Hair down to his knee;
 G5
Got to be a joker, he just do what he please.

(Repete Intro)

D5
  He wear no shoe shine, he got
Toe jam football, he got
Monkey finger, he shoot
Coca-cola, He say

A5
  "I know you, you know me."
G5
  One thing I can tell you is you got to be free

Refrão:
        B5      A5    G5  A5
Come Together, Right now,  over me

(Repete-Intro)

D5
  He bag production, he got
Wal-rus gumboot, he got
O-no sideboard, he one
Spinal cracker, he got

 A5
Feet down below his knee
 G5
Hold you in his armchair, you can feel his disease

Refrão:
        B5      A5    G5  A5
Come Together, Right now,  over me

(Repete-Intro)

Solo:
E|---------------------------------------------------|
B|---------------------------------------------------|
G|-10-10-10-10-10-10-10------------------------------|
D|-10-10-10-10-10-10-10-12-10-12---------------------|
A|----------------------12-10-12---------------------|(3x)
E|---------------------------------------------------|

E|---------------------------------------------------|
B|---------------------------------------------------|
G|-10-10-10-10-10-10-10-10---------------------------|
D|-10-10-10-10-10-10-10-10-12-10-12------------------|
A|-------------------------12-10-12------------------|
E|---------------------------------------------------|

E|-15/17~--15/17-15/17-15\13-15/17~------------------|
B|-15/17~--15/17-15/17-15\13-15/17~------------------|
G|---------------------------------------------------|
D|---------------------------------------------------|
A|---------------------------------------------------|
E|---------------------------------------------------|


E|-15/17~--15/17-15/17-15\13-10/12~------------------|
B|-15/17~--15/17-15/17-15\13-10/12~------------------|
G|---------------------------------------------------|
D|---------------------------------------------------|
A|---------------------------------------------------|
E|---------------------------------------------------|


E|-10/12~--10/12-10/12-10\9-/17~---------------------|
B|-10/12~--10/12-10/12-10\9--------------------------|
G|---------------------------------------------------|
D|---------------------------------------------------|
A|---------------------------------------------------|
E|---------------------------------------------------|

D5
  He roller coaster, he got
Early warning, he got
Muddy water, he one
Mo-jo filter he say

  A5
" One and one and one is three."
 G5
Got to be good looking cause he so hard to see

Refrão:
        B5      A5    G5  A5
Come Together, Right now,  over me

(Repete Intro)
(Solo final - Com Slide):
E|---------------------------------------------------|
B|---------------------------------------------------|
G|-9/10~----9/10~----9/10~----9/10~------------------|
D|-9/10~----9/10~----9/10~----9/10~------------------| (3x)
A|---------------------------------------------------|
E|---------------------------------------------------|

E|---------13/15-13/15\13-11-------------------------|
B|-13/15~--------------------13/15~------------------|
G|---------------------------------------------------|
D|---------------------------------------------------|
A|---------------------------------------------------|
E|---------------------------------------------------|

E|------------8/10~----------------------------------|
B|----10\8-------------------------------------------|
G|-10------10----------------------------------------|
D|---------------------------------------------------|
A|---------------------------------------------------|
E|---------------------------------------------------|

E|----13/15\13\10-8/10~------------------------------|
B|-15------------------------------------------------|
G|---------------------------------------------------|
D|---------------------------------------------------|
A|---------------------------------------------------|
E|---------------------------------------------------|

E|-------------15/17~--------------------------------|
B|----15\13------------------------------------------|
G|-14-------14---------------------------------------|
D|---------------------------------------------------|
A|---------------------------------------------------|
E|---------------------------------------------------|

E|-15/17-15/17\15-13-15/17~--------------------------|
B|---------------------------------------------------|
G|---------------------------------------------------|
D|---------------------------------------------------|
A|---------------------------------------------------|
E|---------------------------------------------------|

E|----19/21\19----19/21------------------------------|
B|-21----------21------------------------------------|
G|---------------------------------------------------|
D|---------------------------------------------------|  (2x)
A|---------------------------------------------------|
E|---------------------------------------------------|

E|-15/17-15/17\15-13-15/17~--------------------------|
B|---------------------------------------------------|
G|---------------------------------------------------|
D|---------------------------------------------------|
A|---------------------------------------------------|
E|---------------------------------------------------|

E|---------------------------------------------------|
B|----15\13----13/15~--------------------------------|
G|-14-------14---------------------------------------|
D|---------------------------------------------------|
A|---------------------------------------------------|
E|---------------------------------------------------|

E|---------------------------------------------------|
B|-13/15-13/15-13\10-8/13~---------------------------|
G|---------------------------------------------------|
D|---------------------------------------------------|
A|---------------------------------------------------|
E|---------------------------------------------------|

Clipes

Cifra Club Pro

Aproveite o Cifra Club com benefícios exclusivos e sem anúncios
7 dias grátis
Cifra Club Pro
Aproveite o Cifra Club com benefícios exclusivos e sem anúncios
7 dias grátis