busca

Michelle

The Beatles

Tom: D (forma dos acordes no tom de A) Capotraste na 5ª casa
[Intro]

E|-----3----3----3----3---3--1-----2/3--2/3--2/3--2/3--|
B|-----4----4----4----4---4--1--4--2/3--2/3--2/3--2/3--|
G|---5----4----3----2---1----1-------------------------|
D|-----------------------------------------------------|
A|-----------------------------------------------------|
E|-----------------------------------------------------|

C/G         Fm7/A   Bb6                 F#°    G/D   F#°   
Michelle, ma belle, these are words that go together well, my 
G/D
Michelle
C/G         Fm7/A   Bb6                  F#°         G/D   F#°   
Michelle, ma belle, sont des mots qui vont très bien ensemble, très 
G/D
bien

Cm                                  Eb7                  G#
I love you, I love you, I love you, that's all I want to say
G5             Cm
until I find a way
(Intro)                                         G/D
I will say the only words I know that you'll understand.

C/G         Fm7/A   Bb6                 F#°          G/D   F#°   
Michelle, ma belle, sont des mots qui vont très bien ensemble, très 
G/D
bien

Cm                                  Eb7                  G#
 I need to , I need to , I need to I need to make you see
G5             Cm
oh what you mean to me
(Intro)                                    G/D
until I do I'm hoping you will know what I mean

C/G         Fm7/A   Bb6                  F#°         G/D   F#°   G/D
I love you

[Solo]
  
        C/G             Fm7/A     Bb6                 F#°
E|----------------------------------------------------|
B|----------------------------------------------------|
G|----------------------------------------------------|
D|-------------2--3--5--6---1---0---0--1--3-----------|
A|----3--3--5---------------------------------1----3--|
E|----------------------------------------------------|

                     G/D  F#°       G/D
E|---------------------------------------------------------|
B|---------------------------------------------------------|
G|---------------------------------------------------------|
D|-----0--1---------------1--------------------------------|
A|--3--------0----2---0-------3---2-----------2--3--5--6---|
E|--------------------------------------3--5---------------|

Cm                                  Eb7                  G#
I want you, I want you, I want you. I think you know by now
G5             Cm
I'll get to you somehow.
(Intro)                                    G/D
Until I do I'm telling you so you'll understand.

C/G         Fm7/A   Bb6                  F#°         G/D   F#°   
Michelle, ma belle, sont des mots qui vont très bien ensemble, très 
G/D
bien

                                                G/D
I will say the only words I know that you'll understand, my Michelle

[Solo]
  
        C/G             Fm7/A     Bb6                 F#° 
E|----------------------------------------------------|
B|----------------------------------------------------|
G|----------------------------------------------------|
D|-------------2--3--5--6---1---0---0--1--3-----------|
A|----3--3--5---------------------------------1----3--|
E|----------------------------------------------------|

                G/D  F#°        G/D
E|---------------------------------------------------------|
B|---------------------------------------------------------|
G|---------------------------------------------------------|
D|-----0--1---------------1--------------------------------|
A|--3--------0----2---0-------3---2-----------2--3--5--3---|
E|--------------------------------------3--5---------------|

Clipes

Cifra Club Pro

Aproveite o Cifra Club com benefícios exclusivos e sem anúncios
7 dias grátis
Cifra Club Pro
Aproveite o Cifra Club com benefícios exclusivos e sem anúncios
7 dias grátis