busca

Água Na Peneira

Zé Neto e Cristiano

Tom: Db (forma dos acordes no tom de C) Capotraste na 1ª casa
[Intro] F9/C  C  Am7  G
 
     F9/C     C         Am7       G 
E|------------------------------------------|
B|--------1---------1---------1---------3---|
G|----------0-----0---0-----0---0-----0---0-|
D|-----3--------2---------2---------0-------|
A|-2h3--------3---------0-------------------|
E|--------------------------------3---------|

     F9/C      C         G 
E|------------------------------------------|
B|--------1----------1---------3----0-------|
G|----------0------0---0-----0---0--0-------|
D|-----3---------2---------0--------0-------|
A|-2h3---------3----------------------------|
E|-----------------------3----------3-------|

[Primeira Parte]

  F9/C          C            Am7          G
Quanto mais eu penso que eu tenho o seu amor
 F9/C         C        G
Mais eu vejo você escapar
                        F9/C            
Feito areia entre meus dedos
      C          G
Feito água na peneira
                          F9/C
Tudo que eu faço não tem jeito
        C               G
Pra te ver presa nesse peito

        F9/C  C
Sem porteira
        Am7            G
E você aí, marcando bobeira

[Refrão]

              F9/C         C
Você tem um quarto no meu coração
             Am7 
Com suíte e tv
                     G
Tá querendo mais o quê?

              F9/C         C
Você tem um quarto no meu coração
                   Am7 
Amor pra dar e vender 
                     G
Tá querendo mais o quê?

Quer me ver enlouquecer

( F9/C  C  G )
( F9/C  C  G )

[Primeira Parte]

  F9/C          C            Am7          G
Quanto mais eu penso que eu tenho o seu amor
 F9/C         C        G
Mais eu vejo você escapar
                        F9/C            
Feito areia entre meus dedos
      C          G
Feito água na peneira
                          F9/C
Tudo que eu faço não tem jeito
        C               G
Pra te ver presa nesse peito

        F9/C  C
Sem porteira
        Am7            G
E você aí, marcando bobeira

[Refrão]

              F9/C         C
Você tem um quarto no meu coração
             Am7 
Com suíte e tv
                     G
Tá querendo mais o quê?

              F9/C         C
Você tem um quarto no meu coração
                   Am7 
Amor pra dar e vender 
                     G
Tá querendo mais o quê?

Quer me ver enlouquecer

[Final] F9/C  C  G 
        F9/C  C  G

Clipes