busca

Sonha Comigo

Zé Neto e Cristiano

Tom: D
                 D           A              Bm Bm/A     G
E|-------5-2---------5-2/3/2-------------------------5/2--------|
B|--3/5/3------3/5/3------------5/7--------5/7------------------|
G|----------------------------------4-4/7-------4-4/7-----------|
D|--------------------------------------------------------------|
A|--------------------------------------------------------------|
E|--------------------------------------------------------------|


 D
 Independente do que eu te disser agora
 A
 Independente de tentar mudar a história
  Bm  Bm/A
 Mas eu vou arriscar
  G
 Posso te perder mas não vou deixar de falar

  D
 Seu amor...
                                     A
 Foi sempre muito mais do que eu sonhei, pra mim
                          Bm  Bm/A
 Sempre mais do que eu mereci
           G             A
 Pensa direito antes de dormir

          D               A               Bm Bm/A
 Sonha comigo... sonha comigo... sonha comigo...
               G
 To esperando você acordar
          D               A
 Sonha comigo... sonha comigo... 
            Bm    Bm/A          G
 E quando acordar, cê vai me perdoar

          D           A

E|-------3/5-3-2--------3/5-3-2-3/5-3/5--------|
B|---1/3---------3--1/2------------------------|
G|---------------------------------------------|
D|---------------------------------------------|
A|---------------------------------------------|
E|---------------------------------------------|
 
  D
 Seu amor...
                                     A
 Foi sempre muito mais do que eu sonhei, pra mim
                          Bm  Bm/A
 Sempre mais do que eu mereci
           G             A
 Pensa direito antes de dormir

          D               A               Bm Bm/A
 Sonha comigo... sonha comigo... sonha comigo...
               G
 To esperando você acordar
          D               A
 Sonha comigo... sonha comigo... 
            Bm   Bm/A           G   D
 E quando acordar, cê vai me perdoar

Clipes