busca

A Solidão É Uma Ressaca

Bruno e Marrone

Tom: G
[Intro] D  Em  C  D  G  D

E|------------------------------------------|
B|-----------10-8-7-------8~---7-8-7--------|
G|------------------9-8-9----9-------9-7~---|
D|------------------------------------------|
A|------------------------------------------|
E|--7-8-9-10~-------------------------------|

E|------------------------------------------|
B|------------------------------------------|
G|--7h9-7-----------------------------------|
D|--------10-9-7------7---------------------|
A|---------------10-9---10------------------|
E|------------------------------------------|

[Primeira Parte]

 G       Am          Bm
Hoje  quando eu acordei
           Am          G
Olhei pra mim e perguntei
       E7               Am  E7
Aonde foi que eu me perdi
   Am         Am/G#      Am/G
Sozinho  eu saí da casa dela
       F#7(b13)      D
Acho que briguei com ela
                      G   D4  D
Lembro que foi bem assim
   G           Am          Bm
Depois que brigamos fui embora
     Am         G         E7            Am
Decidi naquela hora tomar uma pra esquecer
     C         Cm           G
Coração apaixonado mais bandido
       E7          Am
Encontrou outro ferido
       D7          G
E era linda de morrer

[Refrão]

           D
Eu nem me lembro
                  Em
Como foi que terminou
                 C           D          G
Se a gente fez amor ou só falou de solidão
             D
Só sei que agora
                  Em
Eu estou tão dividido
                   C             D7       G
Acordei fiquei perdido com o coração na mão
         D                    Em
Tanta paixão  loucura que não passa
        C          D           G
Amor bandido e solidão é uma ressaca
         D                    Em
Tanta paixão  loucura que não passa
        C          D           G
Amor bandido e solidão é uma ressaca

[Solo] D  Em  C  D  G  D

E|------------------------------------------|
B|-----------10-8-7-------8~---7-8-7--------|
G|------------------9-8-9----9-------9-7~---|
D|------------------------------------------|
A|------------------------------------------|
E|--7-8-9-10~-------------------------------|

E|------------------------------------------|
B|------------------------------------------|
G|--7h9-7-----------------------------------|
D|--------10-9-7------7---------------------|
A|---------------10-9---10------------------|
E|------------------------------------------|

[Primeira Parte]

 G       Am          Bm
Hoje  quando eu acordei
           Am          G
Olhei pra mim e perguntei
       E7               Am  E7
Aonde foi que eu me perdi
   Am         Am/G#      Am/G
Sozinho  eu saí da casa dela
       F#7(b13)      D
Acho que briguei com ela
                      G   D4  D
Lembro que foi bem assim
   G           Am          Bm
Depois que brigamos fui embora
     Am         G         E7            Am
Decidi naquela hora tomar uma pra esquecer
     C         Cm           G
Coração apaixonado mais bandido
       E7          Am
Encontrou outro ferido
       D7          G
E era linda de morrer

[Refrão]

           D
Eu nem me lembro
                  Em
Como foi que terminou
                 C           D          G
Se a gente fez amor ou só falou de solidão
             D
Só sei que agora
                  Em
Eu estou tão dividido
                   C             D7       G
Acordei fiquei perdido com o coração na mão
         D                    Em
Tanta paixão  loucura que não passa
        C          D           G
Amor bandido e solidão é uma ressaca
         D                    Em
Tanta paixão  loucura que não passa
        C          D           G
Amor bandido e solidão é uma ressaca

         D                    Em
Tanta paixão  loucura que não passa
        C          D           G
Amor bandido e solidão é uma ressaca
         D                    Em
Tanta paixão  loucura que não passa
        C          D           G
Amor bandido e solidão é uma ressaca

[Final] G  Bm  Am  C  D  G 

Clipes

Cifra Club Pro

Aproveite o Cifra Club com benefícios exclusivos e sem anúncios
Cifra Club Pro
Aproveite o Cifra Club com benefícios exclusivos e sem anúncios