busca

Seu Amor Ainda É Tudo

Bruno e Marrone

Tom: Dm
[Intro] Dm  Bb9  F  C  Dm  A

E|------------------------------------------|
B|-----6~--6-5-----------6~-----------------|
G|-------------7-5--------------------------|
D|-6/7-------------7-7/8--------------------|
A|------------------------------------------|
E|------------------------------------------|

E|------------------------------------------|
B|-6-5--------------------------------------|
G|-----7-5-----5----------------------------|
D|---------7-7---7-5~--7--------------------|
A|-----------------------8-7-5--5h7-5-4~----|
E|------------------------------------------|

[Primeira Parte]

 Dm                              Gm       Gm7  Gm
Muito prazer em revê-la, você está bonita
 A                                Dm         A
Muito elegante, mais jovem, tão cheia de vida
Dm                               Gm         Gm7  Gm
Eu ainda falo de flores e declamo   seu nome
 A                                      D          A
Mesmo os meus dedos me traem, discam o seu telefone

[Pré-Refrão]

D        D7M        D6         D7M  D
É minha cara, eu mudei, minha cara
                       G  D4/F#
Mas por dentro eu não mudo
Em7                                  A            
O sentimento não para, a doença não sara
                  D     A
Seu amor ainda é tudo, tudo

[Refrão]

    D      D7M       Bm         Em    Em7  Em
Daquele momento até hoje esperei  você
    A                              D      A  
Daquele maldito momento até hoje, só você
    D            D7M     Bm           Em    Em7  Em
Eu sei que o culpado de não ter você sou eu
        A
E esse medo terrível de amar outra vez é meu

[Solo] Dm  Bb9  F  C  Dm  A

E|------------------------------------------|
B|-----6~--6-5-----------6~-----------------|
G|-------------7-5--------------------------|
D|-6/7-------------7-7/8--------------------|
A|------------------------------------------|
E|------------------------------------------|

E|------------------------------------------|
B|-6-5--------------------------------------|
G|-----7-5-----5----------------------------|
D|---------7-7---7-5~--7--------------------|
A|-----------------------8-7-5--5h7-5-4~----|
E|------------------------------------------|

[Segunda Parte]

 Dm                       Gm       Gm7  Gm
Sei não devia dizer, disse   perdoa
A                                              Dm  A
  Bem que eu queria encontrá-la e sorrir numa boa
Dm                               Gm              Gm7
  Mas convenhamos, a vida nos faz   tão pequenos
A                                D              A
  Nos preparamos pra muito e choramos por menos

[Pré-Refrão]

D        D7M        D6         D7M  D
É minha cara, eu mudei, minha cara
                       G  D4/F#
Mas por dentro eu não mudo
Em7                                  A            
O sentimento não para, a doença não sara
                  D     A
Seu amor ainda é tudo, tudo

[Refrão]

    D      D7M       Bm         Em    Em7  Em
Daquele momento até hoje esperei  você
    A                              D      A  
Daquele maldito momento até hoje, só você
    D            D7M     Bm           Em    Em7  Em
Eu sei que o culpado de não ter você sou eu
        A                                 D  G  D
E esse medo terrível de amar outra vez é meu

Clipes