/ / / / / / / / / / / / / / / /
busca

Ligação Urbana

Bruno e Marrone

Tom: F#m
[Intro] A  C#m  F#m  F 
        A  C#m  F#m  D

   A                                    C#m
E|-9-10-12--9-10-12--9-10-12--9-10-12-----------------|
B|--------------------------------------9-10-12-------|
G|----------------------------------------------------|
D|----------------------------------------------------|
A|----------------------------------------------------|
E|----------------------------------------------------|
 
                               F#m
E|----------------------------------------------------|
B|-9-10-12--9-10-12--9-10-12---7-9-10--7-9-10--7-9-10-|
G|----------------------------------------------------|
D|----------------------------------------------------|
A|----------------------------------------------------|
E|----------------------------------------------------|

           F
E|----------------------------------------------------|
B|-7-9-10--6-8-10--6-8-10--6-8-10--6-8-10-------------|
G|----------------------------------------------------|
D|----------------------------------------------------|
A|----------------------------------------------------|
E|----------------------------------------------------|

   A                                    C#m
E|-9-10-12--9-10-12--9-10-12--9-10-12-----------------|
B|--------------------------------------9-10-12-------|
G|----------------------------------------------------|
D|----------------------------------------------------|
A|----------------------------------------------------|
E|----------------------------------------------------|
 
                               F#m
E|----------------------------------------------------|
B|-9-10-12--9-10-12--9-10-12---7-9-10--7-9-10--7-9-10-|
G|----------------------------------------------------|
D|----------------------------------------------------|
A|----------------------------------------------------|
E|----------------------------------------------------|

   D
E|----------------------------------------------------|
B|---------10-----------------------------------------|
G|-7-7/9-9--------------------------------------------|
D|----------------------------------------------------|
A|----------------------------------------------------|
E|----------------------------------------------------|

[Primeira Parte]

  A                             C#m
Alô amor estou te ligando de um orelhão
                   D
Tá um barulho uma confusão
                      E7      D  E7
Mas eu preciso tanto te falar

   A                                   C#m
Depois das seis tô te esperando no mesmo lugar
                        D
Pois estou louco pra te encontrar
                        E7
Pra outra noite de aventura

[Segunda Parte]

 A
Fui eu que fiz amor por brincadeira
              C#
E acabei me apaixonando
      D                   E7
Meu amor eu me rendo a você pois
           A    E7
estou te amando

 A
Você deixou em mim uma saudade
                    C#
Com seu jeito de fazer paixão
      D                 E7
Você fez maravilhas loucuras
            A
No meu coração

[Refrão]

           E7    C#7
Um beijo pra você
           F#m
Não posso demorar

       D              E7
Estou numa ligação urbana
          D      E7   A
Tem mais gente pra ligar

           E7    C#7
Um beijo pra você
           F#m
Não posso demorar

       D              E7
Estou numa ligação urbana
        D     E7       A
Vem correndo me encontrar

[Solo] A  C#m  F#m  F 
       A  C#m  F#m  D

   A                                    C#m
E|-9-10-12--9-10-12--9-10-12--9-10-12-----------------|
B|--------------------------------------9-10-12-------|
G|----------------------------------------------------|
D|----------------------------------------------------|
A|----------------------------------------------------|
E|----------------------------------------------------|
 
                               F#m
E|----------------------------------------------------|
B|-9-10-12--9-10-12--9-10-12---7-9-10--7-9-10--7-9-10-|
G|----------------------------------------------------|
D|----------------------------------------------------|
A|----------------------------------------------------|
E|----------------------------------------------------|

           F
E|----------------------------------------------------|
B|-7-9-10--6-8-10--6-8-10--6-8-10--6-8-10-------------|
G|----------------------------------------------------|
D|----------------------------------------------------|
A|----------------------------------------------------|
E|----------------------------------------------------|

   A                                    C#m
E|-9-10-12--9-10-12--9-10-12--9-10-12-----------------|
B|--------------------------------------9-10-12-------|
G|----------------------------------------------------|
D|----------------------------------------------------|
A|----------------------------------------------------|
E|----------------------------------------------------|
 
                               F#m
E|----------------------------------------------------|
B|-9-10-12--9-10-12--9-10-12---7-9-10--7-9-10--7-9-10-|
G|----------------------------------------------------|
D|----------------------------------------------------|
A|----------------------------------------------------|
E|----------------------------------------------------|

   D
E|----------------------------------------------------|
B|---------10-----------------------------------------|
G|-7-7/9-9--------------------------------------------|
D|----------------------------------------------------|
A|----------------------------------------------------|
E|----------------------------------------------------|

[Primeira Parte]

  A                             C#m
Alô amor estou te ligando de um orelhão
                   D
Tá um barulho uma confusão
                      E7      D  E7
Mas eu preciso tanto te falar

   A                                   C#m
Depois das seis tô te esperando no mesmo lugar
                        D
Pois estou louco pra te encontrar
                        E7
Pra outra noite de aventura

[Segunda Parte]

 A
Fui eu que fiz amor por brincadeira
              C#
E acabei me apaixonando
      D                   E7
Meu amor eu me rendo a você pois
           A    E7
estou te amando

 A
Você deixou em mim uma saudade
                    C#
Com seu jeito de fazer paixão
      D                 E7
Você fez maravilhas loucuras
            A
No meu coração

[Refrão]

           E7    C#7
Um beijo pra você
           F#m
Não posso demorar

       D              E7
Estou numa ligação urbana
          D      E7   A
Tem mais gente pra ligar

           E7    C#7
Um beijo pra você
           F#m
Não posso demorar

       D              E7
Estou numa ligação urbana
        D     E7       A
Vem correndo me encontrar

           F#7   D#7
Um beijo pra você
           G#m
Não posso demorar

       E              F#7
Estou numa ligação urbana
          E     F#7   B
Tem mais gente pra ligar

           F#7   D#7
Um beijo pra você
           G#m
Não posso demorar

       E              F#7
Estou numa ligação urbana
        E     F#7       B
Vem correndo me encontrar

[Final]

    G#m   E        F#7           B
Ou ou ou ou eu to louco pra te amar
    G#m   E         F#7           B
ou ou ou ou vem correndo me encontrar
    G#m   E        F#7           B
Ou ou ou ou eu to louco pra te amar
    G#m   E         F#7            E  A       B
ou ou ou ou vem correndo me encontrar   alo amor

Clipes