Ligação Urbana

Bruno e Marrone

A
123
X02220
B
234
X24442
C#
234
X46664
C#7
1234
X4342X
C#m
234
X46654
D
123
XX0232
D#7
1234
X6564X
E
123
022100
E7
1234
022130
F
234
133211
F#7
34
242322
F#m
34
244222
G#m
34
466444
Tom: G
[Intro] A  C#m  F#m  F 
        A  C#m  F#m  D

#1t1#   A                                    C#m
#1t2#E|-9-10-12--9-10-12--9-10-12--9-10-12-----------------|
B|--------------------------------------9-10-12-------|
G|----------------------------------------------------|
D|----------------------------------------------------|
A|----------------------------------------------------|
E|----------------------------------------------------|#/1t2##/1t1#
 
#2t1#                               F#m
#2t2#E|----------------------------------------------------|
B|-9-10-12--9-10-12--9-10-12---7-9-10--7-9-10--7-9-10-|
G|----------------------------------------------------|
D|----------------------------------------------------|
A|----------------------------------------------------|
E|----------------------------------------------------|#/2t2##/2t1#

#3t1#           F
#3t2#E|----------------------------------------------------|
B|-7-9-10--6-8-10--6-8-10--6-8-10--6-8-10-------------|
G|----------------------------------------------------|
D|----------------------------------------------------|
A|----------------------------------------------------|
E|----------------------------------------------------|#/3t2##/3t1#

#4t1#   A                                    C#m
#4t2#E|-9-10-12--9-10-12--9-10-12--9-10-12-----------------|
B|--------------------------------------9-10-12-------|
G|----------------------------------------------------|
D|----------------------------------------------------|
A|----------------------------------------------------|
E|----------------------------------------------------|#/4t2##/4t1#
 
#5t1#                               F#m
#5t2#E|----------------------------------------------------|
B|-9-10-12--9-10-12--9-10-12---7-9-10--7-9-10--7-9-10-|
G|----------------------------------------------------|
D|----------------------------------------------------|
A|----------------------------------------------------|
E|----------------------------------------------------|#/5t2##/5t1#

#6t1#   D
#6t2#E|----------------------------------------------------|
B|---------10-----------------------------------------|
G|-7-7/9-9--------------------------------------------|
D|----------------------------------------------------|
A|----------------------------------------------------|
E|----------------------------------------------------|#/6t2##/6t1#

[Primeira Parte]

  A                             C#m
Alô amor estou te ligando de um orelhão
                   D
Tá um barulho uma confusão
                      E7      D  E7
Mas eu preciso tanto te falar

   A                                   C#m
Depois das seis tô te esperando no mesmo lugar
                        D
Pois estou louco pra te encontrar
                        E7
Pra outra noite de aventura

[Segunda Parte]

 A
Fui eu que fiz amor por brincadeira
              C#
E acabei me apaixonando
      D                   E7
Meu amor eu me rendo a você pois
           A    E7
estou te amando

 A
Você deixou em mim uma saudade
                    C#
Com seu jeito de fazer paixão
      D                 E7
Você fez maravilhas loucuras
            A
No meu coração

[Refrão]

           E7    C#7
Um beijo pra você
           F#m
Não posso demorar

       D              E7
Estou numa ligação urbana
          D      E7   A
Tem mais gente pra ligar

           E7    C#7
Um beijo pra você
           F#m
Não posso demorar

       D              E7
Estou numa ligação urbana
        D     E7       A
Vem correndo me encontrar

[Solo] A  C#m  F#m  F 
       A  C#m  F#m  D

#7t1#   A                                    C#m
#7t2#E|-9-10-12--9-10-12--9-10-12--9-10-12-----------------|
B|--------------------------------------9-10-12-------|
G|----------------------------------------------------|
D|----------------------------------------------------|
A|----------------------------------------------------|
E|----------------------------------------------------|#/7t2##/7t1#
 
#8t1#                               F#m
#8t2#E|----------------------------------------------------|
B|-9-10-12--9-10-12--9-10-12---7-9-10--7-9-10--7-9-10-|
G|----------------------------------------------------|
D|----------------------------------------------------|
A|----------------------------------------------------|
E|----------------------------------------------------|#/8t2##/8t1#

#9t1#           F
#9t2#E|----------------------------------------------------|
B|-7-9-10--6-8-10--6-8-10--6-8-10--6-8-10-------------|
G|----------------------------------------------------|
D|----------------------------------------------------|
A|----------------------------------------------------|
E|----------------------------------------------------|#/9t2##/9t1#

#10t1#   A                                    C#m
#10t2#E|-9-10-12--9-10-12--9-10-12--9-10-12-----------------|
B|--------------------------------------9-10-12-------|
G|----------------------------------------------------|
D|----------------------------------------------------|
A|----------------------------------------------------|
E|----------------------------------------------------|#/10t2##/10t1#
 
#11t1#                               F#m
#11t2#E|----------------------------------------------------|
B|-9-10-12--9-10-12--9-10-12---7-9-10--7-9-10--7-9-10-|
G|----------------------------------------------------|
D|----------------------------------------------------|
A|----------------------------------------------------|
E|----------------------------------------------------|#/11t2##/11t1#

#12t1#   D
#12t2#E|----------------------------------------------------|
B|---------10-----------------------------------------|
G|-7-7/9-9--------------------------------------------|
D|----------------------------------------------------|
A|----------------------------------------------------|
E|----------------------------------------------------|#/12t2##/12t1#

[Primeira Parte]

  A                             C#m
Alô amor estou te ligando de um orelhão
                   D
Tá um barulho uma confusão
                      E7      D  E7
Mas eu preciso tanto te falar

   A                                   C#m
Depois das seis tô te esperando no mesmo lugar
                        D
Pois estou louco pra te encontrar
                        E7
Pra outra noite de aventura

[Segunda Parte]

 A
Fui eu que fiz amor por brincadeira
              C#
E acabei me apaixonando
      D                   E7
Meu amor eu me rendo a você pois
           A    E7
estou te amando

 A
Você deixou em mim uma saudade
                    C#
Com seu jeito de fazer paixão
      D                 E7
Você fez maravilhas loucuras
            A
No meu coração

[Refrão]

           E7    C#7
Um beijo pra você
           F#m
Não posso demorar

       D              E7
Estou numa ligação urbana
          D      E7   A
Tem mais gente pra ligar

           E7    C#7
Um beijo pra você
           F#m
Não posso demorar

       D              E7
Estou numa ligação urbana
        D     E7       A
Vem correndo me encontrar

           F#7   D#7
Um beijo pra você
           G#m
Não posso demorar

       E              F#7
Estou numa ligação urbana
          E     F#7   B
Tem mais gente pra ligar

           F#7   D#7
Um beijo pra você
           G#m
Não posso demorar

       E              F#7
Estou numa ligação urbana
        E     F#7       B
Vem correndo me encontrar

[Final]

    G#m   E        F#7           B
Ou ou ou ou eu to louco pra te amar
    G#m   E         F#7           B
ou ou ou ou vem correndo me encontrar
    G#m   E        F#7           B
Ou ou ou ou eu to louco pra te amar
    G#m   E         F#7            E  A       B
ou ou ou ou vem correndo me encontrar   alo amor
Composição: Jailton Vieira / PaschoalColaboração e revisão: Getúlio VasconcelosSérgio PartinskiRafael Valleramonius silvae mais 1