Te Amar Foi Ilusão

Bruno e Marrone

Am
123
X02210
C
123
X32010
C/G
1234
332X1X
C7
1234
X3231X
C7M
12
X3200X
Dm
123
XX0231
F
234
133211
F#7
34
242322
F/A
1234
5X356X
F7
34
131211
F7M
1234
1X221X
G
123
320003
G/B
123
X20033
G7
34
353433
G9(6)
1234
XX5455
Tom: G
[Intro] G  F  C  F  G7  F#7  F7  G


            G
E|------------------------------8-
B|--5-6-8--10-12-8----------------
G|--------------------------/7----
D|--------------------------------
A|--------------------------------
E|--------------------------------

E|7h8p7----7----------| 
B|------10---8--------| 
G|--------------------| 
D|--------------------| 
A|--------------------| 
E|--------------------| 



           F 
E|-----------------------------5-
B|-------8-8-10-6----------------
G|---7-9-------------------------
D|--------------------------5----
A|-------------------------------
E|-------------------------------

E|-----------/8-10-12--| 
B|8-6-5-6--------------| 
G|---------------------| 
D|---------------------| 
A|---------------------| 
E|---------------------| 



   C                      F       
E|-13-12h13p12p10-12---15/17-15-
B|------------------------------
G|------------------------------
D|------------------------------
A|------------------------------
E|------------------------------
       G7  F#7 F7
E|13-12--15--13--12-----| 
B|----------------------| 
G|----------------------| 
D|----------------------| 
A|----------------------| 
E|----------------------| 



   G
E|-13h13p12-----------------------
B|----------13--------------------
G|-------------14-12~-------------
D|--------------------------------
A|--------------------------------
E|--------------------------------


[Primeira Parte]

    C  C7M
Eu sei
    C                C7M     
Talvez eu tenha sufocado o teu 
        G    G9(6)
sentimento
     G                     
Não consegui sintonizar teu 
       F    F7M
pensamento
   F                          C
Sabendo que você queria arrancar de 
mim
       G
Me deixando assim

[Segunda Parte]

     F
Não sei
Será que eu me enganei o tempo todo 
       C        C7M
com o seu olhar
      C                          
E apesar de tudo o que vivi eu me 
  G/B         F  G7
deixei levar
        F
Que ilusão
 G   G/B   C
Foi te   amar

( Am F C G ) [Refrão] G Am G/B C Vai en-con-trar Alguém que você ame e que te faça o G7 que fez comigo F E vai chorar F/A Cada lágrima que um dia derramei C/G Am por te querer F C G7 Por te amar G Am G/B C E vai sen-tir A dor da indiferença desse alguém G que só te engana F G7 Vai aprender a viver e dar valor no amor C De quem te ama [Solo] C G/B Am Dm F/A G/B C C7 E|------------------------------- B|---------6-5-5---5-------6-5--- G|-----5-7-------7-------5-----7- D|-5-7---------------5-7--------- A|------------------------------- E|------------------------------- E|---------------------| B|---------------------| G|7-5-7----------------| D|---------------------| A|---------------------| E|---------------------| E|------------------------------ B|------------------------------ G|-\4-5-7-7-5-5-4-4h5----------- D|------------------------------ A|------------------------------ E|------------------------------ E|----------------------| B|----------------------| G|5p4-------------------| D|----7-5-7h9--7-7-5-7--| A|----------------------| E|----------------------| E|------------------------------- B|-----------6h8-6-6-5-6~-6p5---- G|-------5-7-------------------7- D|--5-7-------------------------- A|------------------------------- E|------------------------------- E|---------------------| B|---------------------| G|5-5--------5-----5-4-| D|-------5-7-----7-----| A|-----8-------8-------| E|---------------------| E|------------------------------ B|------------------------5-6-7- G|------4-5-7---4-5-7-5-7------- D|----5------------------------- A|------------------------------ E|------------------------------ E|----------------------| B|5/13-13---------------| G|----------------------| D|----------------------| A|----------------------| E|----------------------| [Segunda Parte] F Não sei Será que eu me enganei o tempo todo C C7M com o seu olhar C E apesar de tudo o que vivi eu me G/B F G7 deixei levar F Que ilusão G G/B C Foi te amar ( Am F C G ) [Refrão] G Am G/B C Vai en-con-trar Alguém que você ame e que te faça o G7 que fez comigo F E vai chorar F/A Cada lágrima que um dia derramei C/G Am por te querer F C G7 Por te amar G Am G/B C E vai sen-tir A dor da indiferença desse alguém G que só te engana F G7 Vai aprender a viver e dar valor no amor C De quem te ama [Solo] F G G/B C
Composição: Bruno / Luiz ClaudioColaboração e revisão: Getúlio VasconcelosGuilherme Melotiago frangãoEuler Rochae mais 11