Te Amar Foi Ilusão

Bruno e Marrone

Am
123
X02210
C
123
X32010
C/G
1234
332X1X
C7
1234
X3231X
C7M
12
X3200X
Dm
123
XX0231
F
234
133211
F#7
34
242322
F/A
1234
5X356X
F7
34
131211
F7M
1234
1X221X
G
123
320003
G/B
123
X20033
G7
34
353433
G9(6)
1234
XX5455
Tom: G
[Intro] G  F  C  F  G7  F#7  F7  G

#1t1#            G
#1t2#E|------------------------------8-7h8p7----7----------|
B|--5-6-8--10-12-8----------------------10---8--------|
G|--------------------------/7------------------------|
D|----------------------------------------------------|
A|----------------------------------------------------|
E|----------------------------------------------------|#/1t2##/1t1#

#2t1#           F 
#2t2#E|-----------------------------5------------/8-10-12--|
B|-------8-8-10-6----------------8-6-5-6--------------|
G|---7-9----------------------------------------------|
D|--------------------------5-------------------------|
A|----------------------------------------------------|
E|----------------------------------------------------|#/2t2##/2t1#
 
#3t1#   C                      F            G7  F#7 F7
#3t2#E|-13-12h13p12p10-12---15/17-15-13-12--15--13--12-----|
B|----------------------------------------------------|
G|----------------------------------------------------|
D|----------------------------------------------------|
A|----------------------------------------------------|
E|----------------------------------------------------|#/3t2##/3t1#

#4t1#   G
#4t2#E|-13h13p12-------------------------------------------|
B|----------13----------------------------------------|
G|-------------14-12~---------------------------------|
D|----------------------------------------------------|
A|----------------------------------------------------|
E|----------------------------------------------------|#/4t2##/4t1#

[Primeira Parte]

    C  C7M
Eu sei
    C                C7M             G    G9(6)
Talvez eu tenha sufocado o teu sentimento
     G                            F    F7M
Não consegui sintonizar teu pensamento
   F                          C
Sabendo que você queria arrancar de mim
       G
Me deixando assim

[Segunda Parte]

     F
Não sei
                                           C        C7M
Será que eu me enganei o tempo todo com o seu olhar
      C                            G/B         F  G7 
E apesar de tudo o que vivi eu me deixei levar
        F
Que ilusão 
 G   G/B   C
Foi te   amar

( Am  F  C  G )

[Refrão]

 G  Am  G/B  C
Vai en-con-trar
                                               G7
Alguém que você ame e que te faça o que fez comigo
          F
E vai chorar
                         F/A                C/G  Am
Cada lágrima que um dia derramei por te querer
 F   C   G7
Por te amar

G  Am  G/B C
E vai sen-tir
                                               G
A dor da indiferença desse alguém que só te engana
          F       G7
Vai aprender a viver e dar valor no amor
            C
De quem te ama

[Solo] C  G/B  Am  Dm  F/A  G/B  C  C7

#5t1##5t2#E|----------------------------------------------------|
B|---------6-5-5---5-------6-5------------------------|
G|-----5-7-------7-------5-----7-7-5-7----------------|
D|-5-7---------------5-7------------------------------|
A|----------------------------------------------------|
E|----------------------------------------------------|#/5t2##/5t1#

#6t1##6t2#E|----------------------------------------------------|
B|----------------------------------------------------|
G|-\4-5-7-7-5-5-4-4h5-----------5p4-------------------|
D|----------------------------------7-5-7h9--7-7-5-7--|
A|----------------------------------------------------|
E|----------------------------------------------------|#/6t2##/6t1#

#7t1##7t2#E|----------------------------------------------------|
B|-----------6h8-6-6-5-6~-6p5-------------------------|
G|-------5-7-------------------7-5-5--------5-----5-4-|
D|--5-7---------------------------------5-7-----7-----|
A|------------------------------------8-------8-------|
E|----------------------------------------------------|#/7t2##/7t1#

#8t1##8t2#E|----------------------------------------------------|
B|------------------------5-6-7-5/13-13---------------|
G|------4-5-7---4-5-7-5-7-----------------------------|
D|----5-----------------------------------------------|
A|----------------------------------------------------|
E|----------------------------------------------------|#/8t2##/8t1#

[Segunda Parte]

     F
Não sei
                                           C        C7M
Será que eu me enganei o tempo todo com o seu olhar
      C                            G/B         F  G7 
E apesar de tudo o que vivi eu me deixei levar
        F
Que ilusão 
 G   G/B   C
Foi te   amar

( Am  F  C  G )

[Refrão]

 G  Am  G/B  C
Vai en-con-trar
                                               G7
Alguém que você ame e que te faça o que fez comigo
          F
E vai chorar
                         F/A                C/G  Am
Cada lágrima que um dia derramei por te querer
 F   C   G7
Por te amar

G  Am  G/B C
E vai sen-tir
                                               G
A dor da indiferença desse alguém que só te engana
          F       G7
Vai aprender a viver e dar valor no amor
            C
De quem te ama

[Solo] F  G  G/B  C
Composição: Bruno / Luiz ClaudioColaboração e revisão: Getúlio VasconcelosGuilherme Melotiago frangãoEuler Rochae mais 11