Vida Vazia

Bruno e Marrone

Am7
12
X02010
Bm
234
X24432
C
123
X32010
D
123
XX0232
D/F#
123
20023X
Em
12
022000
G
1234
320033
G6
12
3X0030
G7M
123
3X0032
Tom: G
[Intro]

G  G7M  G6  G7M
G  G7M  G6  G7M
Am7  D  G  G7M  G6  G7M


[TAB SOLO Intro]

Parte 1 de 4

E|-----x-x-------------x-x-----x-
B|-8-8-x-x-7--7-7-7-7--x-x-5-5-x-
G|-----x-x-------------x-x-----x-
D|-9-9-x-x-7--7-7-7-7--x-x-5-5-x-
A|-------------------------------
E|-------------------------------
   ↓ ↑ ↓ ↑ ↓  ↓ ↑ ↓ ↓  ↓ ↑ ↓ ↑ ↓ 

E|x-------------x-x-----| 
B|x-7--7-7-7-7--x-x-----| 
G|x-------------x-x-----| 
D|x-7--7-7-7-7--x-x-----| 
A|----------------------| 
E|----------------------| 
↑ ↓  ↓ ↑ ↓ ↓  ↓ ↑       



Parte 2 de 4

E|-----x-x-------------x-x------x-
B|-8-8-x-x-7--7-7-7-7--x-x--5-5-x-
G|-----x-x-------------x-x------x-
D|-9-9-x-x-7--7-7-7-7--x-x--5-5-x-
A|--------------------------------
E|--------------------------------
   ↓ ↑ ↓ ↑ ↓  ↓ ↑ ↓ ↓  ↓ ↑  ↓ ↑ ↓ 

E|x--------------------| 
B|x--7-----------------| 
G|x--------------------| 
D|x--7-----------------| 
A|---------------------| 
E|---------------------| 
↑  ↓                   



Parte 3 de 4

E|-3-5/7--5--5-x-x-5--5-x-x-5-5-x-
B|--------------------------------
G|-4-5/7--5--5-x-x-5--5-x-x-5-5-x-
D|--------------------------------
A|--------------------------------
E|--------------------------------
   ↓ ↓    ↓  ↑ ↓ ↑ ↓  ↑ ↓ ↑ ↓ ↑ ↓ 

E|x-5--5/7-3-----------| 
B|-----------5---------| 
G|x-5--5/7-4-----------| 
D|-----------5---------| 
A|---------------------| 
E|---------------------| 
↑ ↓  ↓   ↓ ↓           



Parte 4 de 4

E|-----x-x-------------x-x-----x-
B|-8-8-x-x-7--7-7-7-7--x-x-5-5-x-
G|-----x-x-------------x-x-----x-
D|-9-9-x-x-7--7-7-7-7--x-x-5-5-x-
A|-------------------------------
E|-------------------------------
   ↓ ↑ ↓ ↑ ↓  ↓ ↑ ↓ ↓  ↓ ↑ ↓ ↑ ↓ 

E|x-------------x-x-----|   
B|x-7--7-7-7-7--x-x-----|   
G|x-------------x-x-----|   
D|x-7--7-7-7-7--x-x-----|   
A|----------------------|   
E|----------------------|   
↑ ↓  ↓ ↑ ↓ ↓  ↓ ↑         


[Primeira parte]

   G             G7M
Depois que você foi embora
              G6             G7M
A solidão entrou, trancou a porta
          Am7
E não me deixa mais
D
  Eu já tentei sair
          Am7            D
Tentei fugir, não consegui
                 G  G7M  G6  G7M
Eu já não tenho paz

[Pré-refrão]

  Em
Até o meu sorriso é tão sem graça

Não há nada que desfaça
                        Bm
Essa tristeza em meu olhar

C
  O que é que eu vou fazer
             Am7
Pra te esquecer?
D
  O que é que eu vou fazer

Pra não sofrer? Am7 O que é que eu faço pra você D/F# voltar G G7M G Pra minha vida? [Refrão] Am7 D/F# G Em Vida vazia, saudade sua D C Dia nublado, vento gelado G G7M G6 G7M Noite sem lua Am7 D/F# G Em Vida vazia de sentimento D C Noite sem sono, no abandono G G7M G6 G7M Eu não aguento [Solo] G G7M G6 G7M G G7M G6 G7M Am7 D G G7M G6 G7M [TAB Solo] Parte 1 de 4 E|-----x-x-------------x-x-----x- B|-8-8-x-x-7--7-7-7-7--x-x-5-5-x- G|-----x-x-------------x-x-----x- D|-9-9-x-x-7--7-7-7-7--x-x-5-5-x- A|------------------------------- E|------------------------------- ↓ ↑ ↓ ↑ ↓ ↓ ↑ ↓ ↓ ↓ ↑ ↓ ↑ ↓ E|x-------------x-x-----| B|x-7--7-7-7-7--x-x-----| G|x-------------x-x-----| D|x-7--7-7-7-7--x-x-----| A|----------------------| E|----------------------| ↑ ↓ ↓ ↑ ↓ ↓ ↓ ↑ Parte 2 de 4 E|-----x-x-------------x-x------x- B|-8-8-x-x-7--7-7-7-7--x-x--5-5-x- G|-----x-x-------------x-x------x- D|-9-9-x-x-7--7-7-7-7--x-x--5-5-x- A|-------------------------------- E|-------------------------------- ↓ ↑ ↓ ↑ ↓ ↓ ↑ ↓ ↓ ↓ ↑ ↓ ↑ ↓ E|x--------------------| B|x--7-----------------| G|x--------------------| D|x--7-----------------| A|---------------------| E|---------------------| ↑ ↓ Parte 3 de 4 E|-3-5/7--5--5-x-x-5--5-x-x-5-5-x- B|-------------------------------- G|-4-5/7--5--5-x-x-5--5-x-x-5-5-x- D|-------------------------------- A|-------------------------------- E|-------------------------------- ↓ ↓ ↓ ↑ ↓ ↑ ↓ ↑ ↓ ↑ ↓ ↑ ↓ E|x-5--5/7-3-----------| B|-----------5---------| G|x-5--5/7-4-----------| D|-----------5---------| A|---------------------| E|---------------------| ↑ ↓ ↓ ↓ ↓ Parte 4 de 4 E|-----x-x-------------x-x-3---3- B|-8-8-x-x-7--7-7-7-7--x-x-3h5-3- G|-----x-x-------------x-x------- D|-9-9-x-x-7--7-7-7-7--x-x------- A|------------------------------- E|------------------------------- ↓ ↑ ↓ ↑ ↓ ↓ ↑ ↓ ↓ ↓ ↑ E|----------------------| B|----------------------| G|4-2-------------------| D|----5-4-2---2---------| A|----------5-----------| E|----------------------| [Pré-refrão] Em Até o meu sorriso é tão sem graça Não há nada que desfaça Bm Essa tristeza em meu olhar C O que é que eu vou fazer Am7 Pra te esquecer? D O que é que eu vou fazer Pra não sofrer? Am7 O que é que eu faço pra você D/F# voltar G G7M G Pra minha vida? [Refrão final] Am7 D/F# G Em Vida vazia, saudade sua D C Dia nublado, vento gelado G G7M G6 G7M Noite sem lua Am7 D/F# G Em Vida vazia de sentimento D C Noite sem sono, no abandono G G7M G6 G7M Eu não aguento Am7 D/F# G Em Vida vazi____a, oh oh oh D C Dia nublado, vento gelado G G7M G6 G7M Noite sem lua Am7 D/F# G Em Vida vazia de sentimento D C Noite sem sono, no abandono G G7M G6 G7M G Eu não aguento
Composição: Bruno / FelipeColaboração e revisão: Caico AntunesLucas KappaunLucas KappaunJorge Filhoe mais 5
Videoaula VIDA VAZIA (aula de violão completa)