Vida Vazia

Bruno e Marrone

Am7
12
X02010
Bm
234
X24432
C
123
X32010
D
123
XX0232
D/F#
123
20023X
Em
12
022000
G
1234
320033
G6
12
3X0030
G7M
123
3X0032
Tom: G
[Intro]

G  G7M  G6  G7M  
G  G7M  G6  G7M  
Am7  D  G  G7M  G6  G7M  

#1t1#[TAB SOLO Intro]

Parte 1 de 4
#1t2#E|-----x-x-------------x-x-----x-x-------------x-x-----|
B|-8-8-x-x-7--7-7-7-7--x-x-5-5-x-x-7--7-7-7-7--x-x-----|
G|-----x-x-------------x-x-----x-x-------------x-x-----|
D|-9-9-x-x-7--7-7-7-7--x-x-5-5-x-x-7--7-7-7-7--x-x-----|
A|-----------------------------------------------------|
E|-----------------------------------------------------|
   ↓ ↑ ↓ ↑ ↓  ↓ ↑ ↓ ↓  ↓ ↑ ↓ ↑ ↓ ↑ ↓  ↓ ↑ ↓ ↓  ↓ ↑#/1t2##/1t1#

#2t1#Parte 2 de 4
#2t2#E|-----x-x-------------x-x------x-x--------------------|
B|-8-8-x-x-7--7-7-7-7--x-x--5-5-x-x--7-----------------|
G|-----x-x-------------x-x------x-x--------------------|
D|-9-9-x-x-7--7-7-7-7--x-x--5-5-x-x--7-----------------|
A|-----------------------------------------------------|
E|-----------------------------------------------------|
   ↓ ↑ ↓ ↑ ↓  ↓ ↑ ↓ ↓  ↓ ↑  ↓ ↑ ↓ ↑  ↓#/2t2##/2t1#

#3t1#Parte 3 de 4
#3t2#E|-3-5/7--5--5-x-x-5--5-x-x-5-5-x-x-5--5/7-3-----------|
B|-------------------------------------------5---------|
G|-4-5/7--5--5-x-x-5--5-x-x-5-5-x-x-5--5/7-4-----------|
D|-------------------------------------------5---------|
A|-----------------------------------------------------|
E|-----------------------------------------------------|
   ↓ ↓    ↓  ↑ ↓ ↑ ↓  ↑ ↓ ↑ ↓ ↑ ↓ ↑ ↓  ↓   ↓ ↓#/3t2##/3t1#

#4t1#Parte 4 de 4
#4t2#E|-----x-x-------------x-x-----x-x-------------x-x-----|
B|-8-8-x-x-7--7-7-7-7--x-x-5-5-x-x-7--7-7-7-7--x-x-----|
G|-----x-x-------------x-x-----x-x-------------x-x-----|
D|-9-9-x-x-7--7-7-7-7--x-x-5-5-x-x-7--7-7-7-7--x-x-----|
A|-----------------------------------------------------|
E|-----------------------------------------------------|
   ↓ ↑ ↓ ↑ ↓  ↓ ↑ ↓ ↓  ↓ ↑ ↓ ↑ ↓ ↑ ↓  ↓ ↑ ↓ ↓  ↓ ↑        #/4t2##/4t1#

[Primeira parte]

   G             G7M
Depois que você foi embora
              G6             G7M
A solidão entrou, trancou a porta
          Am7
E não me deixa mais
D
  Eu já tentei sair
          Am7            D
Tentei fugir, não consegui
                 G  G7M  G6  G7M
Eu já não tenho paz

[Pré-refrão]

  Em
Até o meu sorriso é tão sem graça

Não há nada que desfaça
                        Bm
Essa tristeza em meu olhar

C
  O que é que eu vou fazer 
             Am7
Pra te esquecer?
D
  O que é que eu vou fazer 
             
Pra não sofrer?
Am7                               D/F#
    O que é que eu faço pra você voltar
G            G7M  G
  Pra minha vida?

[Refrão]

        Am7  D/F#       G  Em
Vida vazia,    saudade sua
        D             C
Dia nublado, vento gelado
           G  G7M  G6  G7M
Noite sem lua

        Am7  D/F#       G    Em
Vida vazia     de sentimento
           D            C
Noite sem sono, no abandono
          G  G7M  G6  G7M    
Eu não aguento

[Solo]

G  G7M  G6  G7M  
G  G7M  G6  G7M  
Am7  D  G  G7M  G6  G7M

[TAB Solo] 

#5t1#Parte 1 de 4
#5t2#E|-----x-x-------------x-x-----x-x-------------x-x-----|
B|-8-8-x-x-7--7-7-7-7--x-x-5-5-x-x-7--7-7-7-7--x-x-----|
G|-----x-x-------------x-x-----x-x-------------x-x-----|
D|-9-9-x-x-7--7-7-7-7--x-x-5-5-x-x-7--7-7-7-7--x-x-----|
A|-----------------------------------------------------|
E|-----------------------------------------------------|
   ↓ ↑ ↓ ↑ ↓  ↓ ↑ ↓ ↓  ↓ ↑ ↓ ↑ ↓ ↑ ↓  ↓ ↑ ↓ ↓  ↓ ↑#/5t2##/5t1#

#6t1#Parte 2 de 4
#6t2#E|-----x-x-------------x-x------x-x--------------------|
B|-8-8-x-x-7--7-7-7-7--x-x--5-5-x-x--7-----------------|
G|-----x-x-------------x-x------x-x--------------------|
D|-9-9-x-x-7--7-7-7-7--x-x--5-5-x-x--7-----------------|
A|-----------------------------------------------------|
E|-----------------------------------------------------|
   ↓ ↑ ↓ ↑ ↓  ↓ ↑ ↓ ↓  ↓ ↑  ↓ ↑ ↓ ↑  ↓#/6t2##/6t1#

#7t1#Parte 3 de 4
#7t2#E|-3-5/7--5--5-x-x-5--5-x-x-5-5-x-x-5--5/7-3-----------|
B|-------------------------------------------5---------|
G|-4-5/7--5--5-x-x-5--5-x-x-5-5-x-x-5--5/7-4-----------|
D|-------------------------------------------5---------|
A|-----------------------------------------------------|
E|-----------------------------------------------------|
   ↓ ↓    ↓  ↑ ↓ ↑ ↓  ↑ ↓ ↑ ↓ ↑ ↓ ↑ ↓  ↓   ↓ ↓#/7t2##/7t1#

#8t1#Parte 4 de 4
#8t2#E|-----x-x-------------x-x-3---3-----------------------|
B|-8-8-x-x-7--7-7-7-7--x-x-3h5-3-----------------------|
G|-----x-x-------------x-x-------4-2-------------------|
D|-9-9-x-x-7--7-7-7-7--x-x-----------5-4-2---2---------|
A|-----------------------------------------5-----------|
E|-----------------------------------------------------|
   ↓ ↑ ↓ ↑ ↓  ↓ ↑ ↓ ↓  ↓ ↑#/8t2##/8t1#

[Pré-refrão]

  Em
Até o meu sorriso é tão sem graça

Não há nada que desfaça
                        Bm
Essa tristeza em meu olhar

C
  O que é que eu vou fazer 
             Am7
Pra te esquecer?
D
  O que é que eu vou fazer 
             
Pra não sofrer?
Am7                               D/F#
    O que é que eu faço pra você voltar
G            G7M  G
  Pra minha vida?

[Refrão final]

        Am7  D/F#       G  Em
Vida vazia,    saudade sua
        D             C
Dia nublado, vento gelado
           G  G7M  G6  G7M
Noite sem lua

        Am7  D/F#       G    Em
Vida vazia     de sentimento
           D            C
Noite sem sono, no abandono
          G  G7M  G6  G7M    
Eu não aguento

        Am7  D/F#     G  Em
Vida vazi____a, oh oh oh
        D             C
Dia nublado, vento gelado
           G  G7M  G6  G7M
Noite sem lua

        Am7  D/F#       G    Em
Vida vazia     de sentimento
           D            C
Noite sem sono, no abandono
          G  G7M  G6  G7M  G  
Eu não aguento
Composição: Bruno / FelipeColaboração e revisão: Caico AntunesLucas KappaunLucas KappaunJorge Filhoe mais 5
Videoaula VIDA VAZIA (aula de violão completa)