A
123
X02220
B
234
X24442
C
123
X32010
C/E
123
032010
C9
34
X35533
Cm
234
X35543
D
123
XX0232
D/F#
1234
2X0232
Dm
123
XX0231
E
123
022100
E/G#
1234
4X245X
Em
12
022000
F
234
133211
F#
234
244322
F#/A#
1234
6X467X
G
123
320003
Tom: G
[Intro] G  D/F#  C9

#1t1##1t2#E|-------------3---2--------------0-------------------|
B|---------3-----------3---0------3-------------------|
G|-----4-----------------------0--0-------------------|
D|--------------------------------3-------------------|
A|--------------------------------2-------------------|
E|-3--------------------------------------------------|#/1t2##/1t1#

#2t1##2t2#E|-/7--7b8r7------7b8r7-------------------------------|
B|------------10---------8---10-8--10/12~-12/10~------|
G|----------------------------------------------------|
D|----------------------------------------------------|
A|----------------------------------------------------|
E|----------------------------------------------------|#/2t2##/2t1#

[Primeira Parte]

G                 D/F#
  Deixa, eu pelo menos falar de nós
          C9
Por um minuto ouvir tua voz
             G         F  C
Nem precisa me perdoar
 G               D/F#
Sabe, ja não consigo entender
          C9
Se quem amou pra valer
               G
Diz que agora tanto faz
        D/F#
Que já não me quer mais
           C           
E diz que nunca, nunca

[Refrão]

 G
Vai me ligar
                            D/F#
Na hora que a saudade a vontade apertar
                               C9
Na busca incessante de outro amor encontrar
    C/E            Cm
Tentando achar a saída

  G
Quero esquecer
                        D/F#
Como se fosse fácil apagar tudo assim
                            C          Cm
Matando nossa história a metade de mim 

Deixa

[Solo] G  D/F#  C9  G

#3t1##3t2#E|-/7--7b8r7------7b8r7-------------------------------|
B|------------10---------8---10-8--10/12~-12/10~------|
G|----------------------------------------------------|
D|----------------------------------------------------|
A|----------------------------------------------------|
E|----------------------------------------------------|#/3t2##/3t1#

[Primeira Parte]

G                 D/F#
  Deixa, eu pelo menos falar de nós
          C9
Por um minuto ouvir tua voz
             G         F  C
Nem precisa me perdoar
 G               D/F#
Sabe, ja não consigo entender
          C9
Se quem amou pra valer
               G
Diz que agora tanto faz
        D/F#
Que já não me quer mais
           C           
E diz que nunca, nunca

[Refrão]

 G
Vai me ligar
                            D/F#
Na hora que a saudade a vontade apertar
                               C9
Na busca incessante de outro amor encontrar
    C/E            Cm
Tentando achar a saída

  G
Quero esquecer
                        D/F#
Como se fosse fácil apagar tudo assim
                            C          A
Matando nossa história a metade de mim 

[Solo] A  E  D  Dm  F#  B


#4t1##4t2#E|--------------------------------------------12-14h--|
B|-12b14-12b14-12b15r12p10-12-12~----12-14-15---------|
G|----------------------------------------------------|
D|----------------------------------------------------|
A|----------------------------------------------------|
E|----------------------------------------------------|#/4t2##/4t1#

#5t1##5t2#E|-14p12-14h-14-14-14-----------17b18-17b18-14~-------|
B|----------------------------------------------------|
G|----------------------------------------------------|
D|----------------------------------------------------|
A|----------------------------------------------------|
E|----------------------------------------------------|#/5t2##/5t1#

[Refrão]

 B
Vai me ligar
                            F#/A#
Na hora que a saudade a vontade apertar
                               E 
Na busca incessante de outro amor encontrar
    E/G#           Em
Tentando achar a saída

  B
Quero esquecer
                        F#/A#
Como se fosse fácil apagar tudo assim
                            E       Em
Matando nossa história a metade de mim

      B
Ooh! Deixa
        F#/A#
Oh,oh! Deixa
       E    B
Hum,um,um! Deixa
Composição: Bruno / Vinicius LeãoColaboração e revisão: hector gonzagaGetúlio VasconcelosWictor Reginaldo Estruzanie mais 2