/ / / / Deixa, eu pelo menos falar de nós / Por " /> / / / / Deixa, eu pelo menos falar de nós / Por ">
busca

Deixa

Bruno e Marrone

Tom: C
[Intro] G  D/F#  C9

E|-------------3---2--------------0-------------------|
B|---------3-----------3---0------3-------------------|
G|-----4-----------------------0--0-------------------|
D|--------------------------------3-------------------|
A|--------------------------------2-------------------|
E|-3--------------------------------------------------|

E|-/7--7b8r7------7b8r7-------------------------------|
B|------------10---------8---10-8--10/12~-12/10~------|
G|----------------------------------------------------|
D|----------------------------------------------------|
A|----------------------------------------------------|
E|----------------------------------------------------|

[Primeira Parte]

G                 D/F#
  Deixa, eu pelo menos falar de nós
          C9
Por um minuto ouvir tua voz
             G         F  C
Nem precisa me perdoar
 G               D/F#
Sabe, ja não consigo entender
          C9
Se quem amou pra valer
               G
Diz que agora tanto faz
        D/F#
Que já não me quer mais
           C           
E diz que nunca, nunca

[Refrão]

 G
Vai me ligar
                            D/F#
Na hora que a saudade a vontade apertar
                               C9
Na busca incessante de outro amor encontrar
    C/E            Cm
Tentando achar a saída

  G
Quero esquecer
                        D/F#
Como se fosse fácil apagar tudo assim
                            C          Cm
Matando nossa história a metade de mim 

Deixa

[Solo] G  D/F#  C9  G

E|-/7--7b8r7------7b8r7-------------------------------|
B|------------10---------8---10-8--10/12~-12/10~------|
G|----------------------------------------------------|
D|----------------------------------------------------|
A|----------------------------------------------------|
E|----------------------------------------------------|

[Primeira Parte]

G                 D/F#
  Deixa, eu pelo menos falar de nós
          C9
Por um minuto ouvir tua voz
             G         F  C
Nem precisa me perdoar
 G               D/F#
Sabe, ja não consigo entender
          C9
Se quem amou pra valer
               G
Diz que agora tanto faz
        D/F#
Que já não me quer mais
           C           
E diz que nunca, nunca

[Refrão]

 G
Vai me ligar
                            D/F#
Na hora que a saudade a vontade apertar
                               C9
Na busca incessante de outro amor encontrar
    C/E            Cm
Tentando achar a saída

  G
Quero esquecer
                        D/F#
Como se fosse fácil apagar tudo assim
                            C          Cm
Matando nossa história a metade de mim 

Deixa

[Solo] A  E  D  Dm  F#  B


E|--------------------------------------------12-14h--|
B|-12b14-12b14-12b15r12p10-12-12~----12-14-15---------|
G|----------------------------------------------------|
D|----------------------------------------------------|
A|----------------------------------------------------|
E|----------------------------------------------------|

E|-14p12-14h-14-14-14-----------17b18-17b18-14~-------|
B|----------------------------------------------------|
G|----------------------------------------------------|
D|----------------------------------------------------|
A|----------------------------------------------------|
E|----------------------------------------------------|

[Refrão]

 B
Vai me ligar
                            F#/A#
Na hora que a saudade a vontade apertar
                               E 
Na busca incessante de outro amor encontrar
    E/G#           Em
Tentando achar a saída

  B
Quero esquecer
                        F#/A#
Como se fosse fácil apagar tudo assim
                            E       Em
Matando nossa história a metade de mim

      B
Ooh! Deixa
        F#/A#
Oh,oh! Deixa
       E    B
Hum,um,um! Deixa

Clipes