busca

O Imperador

Capital Inicial

Tom: G
Int: (Am7   D   Bm   Em)  (4X)

Solo:

E|--------------------------------------------------------------------|
B|-8-7-8-7-----8-7-8-7-----8-7-8-7----8-10-12-10-8----------|
G|------------9-------------9------------9--------------------------|
D|--------------------------------------------------------------------|
A|--------------------------------------------------------------------|
E|--------------------------------------------------------------------|

        (Am7   D   Bm   Em)  
Ele era independente
Sabia o que queria e seguia em frente
Não queria ajuda não precisava de ninguém
Ia fazer tudo sozinho, um dia ia ser alguém
Ele era diferente
Falava o que ninguém diz
E todo mundo sente
Da garagem para a multidão
                 Am7                  C
Só com palavras e uma guitarra na mão

REFRÃO:
   G              C
Não havia nada de errado
   G              C
Não queria nada demais
   G              C
Só queria ser amado
  Em
E ter seu dia de verão

Int: (Am7   D   Bm   Em)  (4X)

Solo:
E|--------------------------------------------------------------------|
B|-8-7-8-7----8-7-8/12-10-8-------------------------------------------|
G|---------9----------------------------------------------------------|
D|--------------------------------------------------------------------|
A|--------------------------------------------------------------------|
E|--------------------------------------------------------------------|

   (Am7   D   Bm   Em)  
Mais ele se achava de mais
”O que eu faço ninguém mais faz”
E seus novos amigos achavam lindo
Qualquer coisa que ele fizesse
Concordavam com tudo
Que ele dissesse
E seus fãs não o reconheciam mais
"Olhem só o que a fama traz”
O cara parecia ter ficado cego
         Am7              C
Apaixonado pelo próprio ego

REFRÃO:
Int: (Am7   D   Bm   Em)  (4X)

Solo:

                (Am7   D   Bm   Em)  
E de repente começou a dar errado
Mas ele não se achava o culpado
No começo era tudo divertido
Agora parecia só mais um perdido
Simplesmente é assim
Tudo na vida tem começo, meio e fim
E seu plano de mudar o mundo
Foi pra última gaveta, lá no fundo
E acabaram os dias de calor
   Am7        D                 Bm    Em     Am7  D  Bm  Em
E todos puderam ver a roupa nova do ex-imperador (3X)
    Am7      D       Bm            Em       Am7      D    Em
E todos puderam ver a roupa nova do ex-imperador

Clipes