busca

Down Em Mim

Cazuza

Tom: C
[Intro]

E|-12~~10-----------------8-----------------------------------------------------8-10-12-15-12----------|
B|-10~~----13-10~~---8-10---10-8-8/10-8~~-----------------8-10-8-----------8-10---------------15-13----|
G|-----------------9---------------------8/9-9-7~~----7-9-------9-9~~--7-9--------------------------14-|
D|-----------------------------------------------------------------------------------------------------|
A|-----------------------------------------------------------------------------------------------------|
E|-----------------------------------------------------------------------------------------------------|

E|-------------------------------------88888-----1010101010----1212121212--10--8----|
B|------10-13-10---------10-13-10------------10-------------10-------------------10-|
G|-9-12----------12-9-12----------12------------------------------------------------|
D|----------------------------------------------------------------------------------|
A|----------------------------------------------------------------------------------|
E|----------------------------------------------------------------------------------|
                                                                F                   Am
E|-10/12--10-8-7-8-------------------------7------------7-------0~-| E|----------0~|
B|-----------------10-10~~-8---8-10-----10---10-7----10---10---10~-| B|----------1~|
G|---------------------------9-------------------------------9-10~-| G|----------2~|
D|----------------------------------12------------10-----------10~-| D|----------2~|
A|--------------------------------------------------------------8~-| A|------0-3-0~|
E|-----------------------------------------------------------------| E|-0-0-3------|

   (Riff_1)       (Riff_2)          (Riff_3)
E|----------| E|----------|    E|----------------|
B|----------| B|-8/10-10~~|    B|-89898989898989-|
G|---5/7-5~~| G|----------|    G|----------------|
D|-7--------| D|----------|    D|----------------|
A|----------| A|----------|    A|----------------|
E|----------| E|----------|    E|----------------|

        Am                           
Eu não sei o que o meu corpo abriga
        G
Nestas noites quentes de verão
   E7
E nem me importa que mil raios partam
             Am             G
Qualquer sentido vago de razão

             Am        
Eu ando tão down
             G         
Eu ando tão down

E7
Outra vez vou te cantar, vou te gritar
        F7               
Te rebocar do bar
Am
E as paredes do meu quarto vão assistir comigo
      G
A versão nova de uma velha história
E7
E quando o sol vier socar minha cara
        Am                 G
Com certeza você já foi embora

             Am         
Eu ando tão down
             G         
Eu ando tão down

E7
Outra vez vou me esquecer
                   F7                    
Pois nestas horas pega mal sofrer
Am
  Da privada eu vou dar com a minha cara
G
  De panaca pintada no espelho
          E7
E me lembrar, sorrindo, que o banheiro
       Am               G
É a igreja de todos os bêbados

             Am         
Eu ando tão down
             G          
Eu ando tão down
             E7
Eu ando tão down
         F7
Down... down

( Am  G  E7  F7 )

             Am    G
Eu ando tão down

[Solo] Am  G  E7  Am
       Am  G  E7  Am


E|--------------17-15/17~17~~--------17-19--p17r19-------17-17~~-------------15--------|
B|-15/17-17---------------------17-20------------------------20------------17-15-17-----17~~|
G|--------------------------------------------------------------------------------------------------------|
D|--------------------------------------------------------------------------------------------------------|
A|--------------------------------------------------------------------------------------------------------|
E|--------------------------------------------------------------------------------------------------------|

E|-----------------------------------------------------------17------------------------------------------------------------------------------------|
B|-15--13------15-13-----15-13------15-13-----15~----17--15/13-15~~--------------13~----------------------13-------------------|
G|----------14----------14----------14----------14------------------------------------12-14------14-12-14-12-14-----14-13~~--------|
D|---------------------------------------------------------------------------------------------------------------------------------------------------|
A|--------------------------------------------------------------------------------------------------------------------------------------------14/---|
E|---------------------------------------------------------------------------------------------------------------------------------------------------|

E|-------------------------------------------------------------------p12r14----12-10--------------------|
B|---------------------10----8---------------------------------8------------------------13-11------------|
G|-------5-7-7/9~-------9----9--6p7-5--7--5~~----7/9-----------------------------------14-12~~|
D|-5h7-----------------------------------------------------------------------------------------------------|
A|-----------------------------------------------------------------------------------------------------------|
E|------------------------------------------------------------------------------------------------------------|

E|-----------------------------------------------------------------------------------5----8------10/12------------|
B|------8-8-8-8--8---8---8------7---7---6------------------------------------5---8----10----------13-10~~|
G|-7/9----------9---9---9---7-8---8---8---8----p5-----7-5----7-5----5-7-----------------------------------|
D|--------------------------------------------------------7-------7-------7-----------------------------------------|
A|--------------------------------------------------------------------------------------------------------------------|
E|--------------------------------------------------------------------------------------------------------------------|

             Am        
Eu ando tão down
             G
Eu ando tão down

Clipes

Cifra Club Pro

Aproveite o Cifra Club com benefícios exclusivos e sem anúncios
7 dias grátis
Cifra Club Pro
Aproveite o Cifra Club com benefícios exclusivos e sem anúncios
7 dias grátis