Cheirando Cola

Charlie Brown Jr.

Tom: G
Esse é o baixo da música que fica 
até o final.


Introdução:

E|--------------------------------
B|--------------------------------
G|--------------------------------
D|--------------------------------
A|--------------------------------
E|----0--3-5--0-1-1--0-5-5--------



Tem uma guitarra de fundo q faz 
esses arranjos:


E|--------------------------------
B|--------------------------------
G|--------------------------------
D|-----7-7-7--5-7-5--3-3-3--------
A|--------------------------------
E|--------------------------------

E|-------------------     
B|-------------------     
G|-------------------     
D|-------------------  8X 
A|-------------------     
E|-------------------     




E|-------------------------------
B|-------------------------------
G|------5-------------5----------
D|-7--5---7---7-5-7-5---7---7--5-
A|-------------------------------
E|-------------------------------

E|---------------------------     
B|---------------------------     
G|5-------------5----------5-     
D|---7---7-5-7-5---7--5--3---  6X 
A|---------------------------     
E|---------------------------     




Quero jogar um videogame, e estou aqui cheirando cola Sou o lixo do mundo, a sociedade me ignora Com os olhos de quem quer ter uma oportunidade Com os olhos de quem quer ter uma vida de verdade Quem tem a mente limitada Evoluir mais tempo Segurança me segue na loja do departamento Achei que fosse um cidadão Mas eu sou só um elemento Exposto a qualquer sol, exposto a qualquer tempo Ah! Manter a calma Será que posso confiar? Em quem devo acreditar? Será que essa porra um dia vai mudar? Eu já vi muita coisa, já ouviu muita coisa, deixa pra lá... Mas diz aí, os gringo tão mandando no Brasil O construtor milionário inglês, o rico português O Brasil virou freguês, há 500 anos, nós entramos pelo cano Os senhores da guerra são a banalização da vida, irmão E o fim da esperança de milhares de pessoas oprimidas
Composição: Colaboração e revisão: Juan Borges