Cruzei Uma Doida

Charlie Brown Jr.

C
123
X32010
D#
234
X65343
Tom: G
intr: riff


   C           D#           C      
|-------------------------|-------
|-------------------------|-------
|-------------------------|-------
|--5---5-5-5-5-8-8-8-8-8--|-5---5-
|--3-5-3-3-3-3-6-6-6-6-6--|-3-5-3-
|----3--------------------|---3---
          D#           
||-------------------|        
||-------------------|        
||-------------------|        
||5--------8-8-8-8-8-| <===2x 
||3-8h10-8-6-6-6-6-6-|        
||-------------------|        



( C  D# )
cruzei uma doida vou investir ate o 
sal come, nao consigo mais
para sou viciado em comer, comer, comer... obs: a musica fica inteira assim. entao a batida eh facil de pegar, detalhes precisam ser tirados (pois estou sem tempo) qualquer sugestao, duvida ou ate mesmo "dívidas" me procure: ...um abraço a todos de NITERÓI...
Composição: Colaboração e revisão: