Tom: G
Eaeee pessoal esperem que vcs gostem
 ,ficou boa ta bem parecida
E só  ouvir a musica e pegar o ritmo
 ,não vai ser dificil
Se vcs quiserem usar acorde na 
musica da pra usar no riff 1 que é  
F#  D#m fica legal tbmm


Introdução:                                                              

E|------------9/13-13-11-11-9-----
B|-6/11-4-6-7------------------11-
G|--------------------------------
D|--------------------------------
A|--------------------------------
E|--------------------------------

E|---------------|  
B|9--------------|  
G|---11----------|  
D|---------------|  
A|---------------|  
E|---------------|  


Riff 1


E|-------------------------------
B|-------------11----------7---7-
G|----11----11-------11--8---8---
D|-11----11-------11-------------
A|-------------------------------
E|-------------------------------

E|9-11-9----------|  
B|-------11-9-----|  
G|------------11--|  
D|----------------|  
A|----------------|  
E|----------------|  

They don't understand u us dog yeah 
they think that shit
Is funny u know i'm over here 
chillin with my dogs
Brasil we ride or die my nigga 
chorao word up

Que lo que e que pasa llegue con 
toda mi rasa
Latinos qual la baina estoy hasta la
 raya
Nunca duermo en la ciudad de piedra 
sigo mi riegra en
Un mundo sangrino de guierra
A los que cren saben pero no ven
Si ves deveras lo cres dos building 
se caen muchas
Muertes asi se puso u.s.a digo say 
say say that's what
They say you could say whatever da 
fuck you wanna say
Yeahha


Riff2

E|--------------------------------
B|--------------------------------
G|--------------------------------
D|-----11---11---11---11-...---10-
A|-9-9----9----9----9----...-9----
E|--------------------------------

E|------------------------|     
B|------------------------|     
G|------------------------|     
D|--10---10---10-...------|     
A|9----9----9----...------|     
E|------------------------|     


Ha ha i'm coming thru yo they don't 
know nothing i'm
Trying to explain
Bush is bullshit for me you know 
what i'm saying i
Don't need none of thatnone of that
I'm brasilian and i ain't got that 
shit in
My vaine

introdução


E|------------9/13-13-11-11-9-----
B|-6/11-4-6-7------------------11-
G|--------------------------------
D|--------------------------------
A|--------------------------------
E|--------------------------------

E|---------------|  
B|9--------------|  
G|---11----------|  
D|---------------|  
A|---------------|  
E|---------------|  


Que lo que es q pasa llegue con toda
 mi rasa a
Concretizar la fuersa
Somos poco pero locos de sampa a 
nueva york que si que
Es mejor
Unir la conexcion lo voz del gueto 
despierta es un
Alierta
Sacramento chorao green goes que 
vinor epresentar
Respecto y humildad la union que nos
 guia ha si
Expressar revolucionar

Riff 1


E|-------------------------------
B|-------------11----------7---7-
G|----11----11-------11--8---8---
D|-11----11-------11-------------
A|-------------------------------
E|-------------------------------

E|9-11-9----------|  
B|-------11-9-----|  
G|------------11--|  
D|----------------|  
A|----------------|  
E|----------------|  


Refrao(Chorão) Skate vibration oldschool charlie brown Rude-boy on the house, dont stop check it out Confisco persisto ha nuestro destino registro assino Ha kikolatino Yo hablo lo que veo enfreinto lo mas feo pero tienes Un deseo Pip me inside the society but deeply vamos nos unir Chorao sacramento mc's in da house yo.... Trama man the drama man yeah Riff2 E|-------------------------------- B|-------------------------------- G|-------------------------------- D|-----11---11---11---11-...---10- A|-9-9----9----9----9----...-9---- E|-------------------------------- E|------------------------| B|------------------------| G|------------------------| D|--10---10---10-...------| A|9----9----9----...------| E|------------------------| Dandada dem wanna fi test the champion non stopa Lite up a match and set u on fire Come into uor house and steal your murrada Fi say anything dem fi get slapa Two shots ina d air a dem a gangstar gangstar Gangstar Os malokeiro brasileiro foram pro queens atras dos Dolla Juntaram com chorao e agora vao fazer historia Riff3 E|-----------7-6-4---------------| B|-4-6-7-6-4-------7-6-----------| G|-------------------------------| D|-------------------------------| A|-------------------------------| E|-------------------------------| The best color and 2 make a dolla try to fallow Got teach u make a dolla check it out Because i aint got times for bitchs Got keep my mind on the mothafucker richs Skatebord style i'm a million dollars baby Smoke two blunts and i'm gonne let u blaze it yo Introdução: I'm gonne do what i got do, that's the way i do right That's gonne make u dudes feel good yoi know do que tu Ablas, because i know o que se passa Me nombre e chorao esta essa e a minha raca Sacramento mcs sao todos meu compassa Vc sabe quem nos somos agora respeito e nao se farca Riff1: Skate vibration oldschool charlie brown Rudebwoy on the house, dont stop check it out You fronted blame the smoke from the marijuana Gonna die hard like desparado in tijuana desrespected Now your life is on it Guns are zoning, murderes are runing Adrenaline so high got get the gunning Your ass best to start runing Like mexicans from border patrol bunnie Saint that funny i shot a few rounds, willing to go Down Run this town don't even dance around like some Clownds Surviving in the gutter ain't kinda hard to breathe I'll be number 1 stunner rocking army fettit Struggling bugging thru the blocks of sao paulo we Stay thugin' Lyrical key slugging' thru the minds of a juvenile Convict Who's raised up in the ghetto nigga ain't kinda of Hard to predict The future of a king make money for instinct survival Of the fittest like my niggas in queens bridge Skate vibration oldschool charlie brown Rudeboy on the house, dont stop check it out Riff2: Toda via yo se lo que hago usted me conoce yo vengo Del barrio ha usted sabe como lo hago entonces es un Weon maricon que tanto habla shit yeah i know what you Saying you are all ready there Pero tu sabe lo que digo sabe lo que suplico pues Riff3: Divulgo mi nonbre kiko kiko kiko kikolatino ha hablo Lo que veo enfriento lo mas feo kiko kiko kikolatino Yo hablo lo que veo infriento lo mas feo pero tienes Un deseo aham yo hablo lo que veo enfriento lo mas Feo pero tienes un deseo Este aqui é o baixo que Heitor faiz no final pelo meno0s eu acho que é E|----------------------------- B|----------------------------- G|-------------6-----6-----6--- D|-------6-8-9---9-9---8-8---6- A|-6-8-9----------------------- E|----------------------------- E|---------------| B|---------------| G|---------------| D|4h6-4----------| A|------8-6------| E|---------------| you know what i'm talking About yo yeah i'ma do it like this waiting on popos Nigga don't wanna go broke....
Composição: Sacramento MC´sColaboração e revisão: alyson ribeiro