Hoje Eu Acordei Feliz

Charlie Brown Jr.

A5
12
X022XX
D5
134
X577XX
G5
134
355XXX
Tom: G

(intro)

E |-----------10-----------10/12--
B |--10----------10--8--10--------
G |-----7-7-7---------------------
D |-------------------------------
A |-------------------------------
E |-------------------------------

E|10-------10-------------|      
B|---10-10----10--8-7-7-8-|      
G|------------------------| (4x) 
D|------------------------|      
A|------------------------|      
E|------------------------|      



(riff 1)

E |---------------------------|   
B |---------------------------|   
G |--7xxx---------------------|   
D |--7xxx--5xxx--2xxx--7xxx---|   
A |--5xxx--5xxx--2xxx--7xxx---|   
E |--------3xxx--0xxx--5xxx---|   

E|            
B|            
G|            
D|            
A|x = abafado 
E|            



(riff 2)

E |-------------------------------
B |-------------------------------
G |-7-7-7-7-7-7/9-9-9-9-9-9/12-12-
D |-x-x-x-x-x-x-x-x-x-x-x-x-xx-xx-
A |-5-5-5-5-5-5/7-7-7-7-7-7/10-10-
E |-------------------------------

E|-----------------------------| 
B|-----------------------------| 
G|12-12-12-12--9-9-11-11-11-11-| 
D|xx-xx-xx-xx--x-x-xx-xx-xx-xx-| 
A|10-10-10-10--7-7-09-09-09-09-| 
E|-----------------------------| 



E |-------------------------------
B |-------------------------------
G |-7-7-7-7-7-7/14-14-14-14-14/16-
D |-x-x-x-x-x-x-xx-xx-xx-xx-xx-xx-
A |-5-5-5-5-5-5/12-12-12-12-12/14-
E |-------------------------------

E|-----------------------| 
B|-----------------------| 
G|14-14-14-14--9-9-11-11-| 
D|xx-xx-xx-xx--x-x-xx-xx-| 
A|12-12-12-12--7-7-09-09-| 
E|-----------------------| 


(riff 1)
Hoje eu acordei para sorrir mostrar 
os dentes
Hoje eu acordei para matar o 
presidente

(riff 2)
Hoje tem festa, ela vai tar eu vou 
Vai ser perfeito
eu vou fazer o que você jamais teria
 feito

(refrão)
D5                G5  A5
Hoje eu acordei feliz
           D5
Sonhei com ela a noite inteira
          G5   A5
Eu sempre quis
D5                G5  A5
Hoje eu acordei feliz
           D5
Sonhei com ela a noite inteira
          G5   A5
Eu sempre quis
Só não quero acordar!

E |-----------10-----------10/12-- B |--10----------10--8--10-------- G |-----7-7-7--------------------- D |------------------------------- A |------------------------------- E |------------------------------- E|10-------10-------------| B|---10-10----10--8-7-7-8-| G|------------------------| D|------------------------| A|------------------------| E|------------------------| E |------------------------------ B |-10-------8-7---7--10/12-10--- G |----7-7-7-----9-------------7- D |------------------------------ A |------------------------------ E |------------------------------ E|------------| B|----8-7-----| G|7-7-----9^^-| D|------------| A|------------| E|------------| (riff 1) Chegou ficou do lado não parou de olhar pra mim Eu sinto lhe dizer mas sou o cara que ela é a fim (riff 2) O sexo é bom o amor, melhor, os dois então perfeito Eu vou fazer o que você jamais teria feito D5 G5 A5 Hoje eu acordei feliz D5 Fiquei com ela a noite inteira G5 A5 Eu sempre quis D5 G5 A5 Hoje eu acordei feliz D5 Fiquei com ela a noite inteira G5 A5 Eu sempre quis Só não quero acordar! E |--x--10~~------------------ B |--x-----10~~--------------- G |--------------------------- D |-----------------7/9-9-9-9- A |-----------------5/7-7-7-7- E |--------------------------- E|---------------|| B|---------------| G|---------------| - (2x) D|9/12-12-12-12--|/ A|7/10-10-10-10--|| E|---------------|/ D5 G5 A5 Não, não importa que muda, te livre, Skate is my life, skate te destrói! D5 G5 A5 Hoje eu acordei feliz D5 Fiquei com ela a noite inteira G5 A5 Eu sempre quis D5 G5 A5 Hoje eu acordei feliz D5 Fiquei com ela a noite inteira G5 A5 Eu sempre quis Só não quero acordar! (intro 3x - na 4ª vez ele faz assim) E |-17--15-14-15-14-------------- B |----------------15------------ G |-------------------12--11--11- D |------------------------------ A |------------------------------ E |------------------------------ E|----------------------------| B|----------------------------| G|12--14--12--11-12-11---14^^-| D|----------------------------| A|----------------------------| E|----------------------------| Com algumas variações no final Chegou ficou do lado Já sentiu um pouco daquele efeito Eu vou fazer o que você jamais teria feito Não quero acordar...Não! Não quero acordar...Não! Não quero acordar...Não! (final) E |---------------------------- B |---------------------------- G |--7-7--9-9--12-12--14-14---- D |--7-7--9-9--12-12--14-14---- A |--5-5--7-7--10-10--12-12---- E |---------------------------- E|--------| B|--------| G|6/7~----| D|6/7~----| A|4/5~----| E|--------|
Composição: Colaboração e revisão: LuiDiegoDenis