Hoje (part. Marcelo Nova)

Charlie Brown Jr.

A
123
X02220
D
123
XX0232
E
123
022100
Em
12
022000
G
123
320003
Tom: G

Riff 1:Riff 1:

E|--------------------------------
B|--------------------------------
G|--------------------------------
D|-7/9-9-9-9-9--7/9-9-9-9-9--79-9-
A|-5/7-7-7-7-7--5/7-7-7-7-7--57-7-
E|--------------------------------

E|------------|        
B|------------|        
G|------------|   (2x) 
D|9-9-9--7----|        
A|7-7-7--5----|        
E|---------5--|        



Refrão:
 E G D Em
E|---------------------|---------
B|---------------------|---------
G|---------------------|---------
D|-9-9-9-9-9-9-9-9-9-9-|---------
A|-7-7-7-7-7-7-7-7-7-7-|-5-5-5-5-
E|---------------------|-3-3-3-3-

E|--|-----------|-------------------
B|--|-----------|-------------------
G|--|-2-2-2-2-2-|-------------------
D|--|-0-0-0-0-0-|-2-2-2-2-2-2-2-2-2-
A|5-|-----------|-2-2-2-2-2-2-2-2-2-
E|3-|-----------|-0-0-0-0-0-0-0-0-0-

---  
---| 
---| 
2--| 
2--| 
0--/ 



Riff 2:

E|--------------|        
B|--------------|        
G|--------------|   (2x) 
D|--7------9--9-|        
A|--5-7-7-7-7---|        
E|----5-5-------|        


E
Ouvi notícias de muito longe
        D   A     E
Batendo na minha porta
E
Eu vi os garfos, eu vi as facas
D       A         E
Em cima da mesa posta
E
Pra que mensagens de telegramas
     D     A        E
Se você me chega e some
E
Tenho dinheiro, eu tenho CPF
           D        A      E
Eu não me lembro é do meu nome

(Repete com as mesmas notas da 
introdução acompanhado pelo Riff 1)

Ouvi notícias de muito longe
Batendo na minha porta
Eu vi os garfos, eu vi as facas
Em cima da mesa posta Pra que mensagens de telegramas Se você me chega e some Tenho dinheiro, eu tenho CPF Eu não me lembro é do meu nome (Riff 2) Não há mais festa, nem Carnaval G D E Acho que eu fui enganado (Riff 2) Me diga as horas, que eu vou embora G D E Hoje eu tô atrasado Pra que escolas e faculdades Não há mais nada a aprender Eu já não vejo, eu já; não penso, já não consigo escrever Sou faixa preta, toco guitarra, um dia vou popular de asa trabalho à noite, durmo de dia não sei se volto pra casa. Não há mais festa, nem Carnaval Acho que eu fui enganado Me diga as horas, que eu vou embora Hoje eu tô atrasado E|-------------------------------- B|--0-2-3-2-0-2-3-2-0-2-3-2-55555- G|-------------------------------- D|-------------------------------- A|-------------------------------- E|-------------------------------- E|-------------------------------- B|--0-2-3-2-0-2-3-2--0-2-0-------- G|-------------------------2------ D|---------------------------2---- A|-------------------------------- E|-------------------------------- Olho pro trânsito, olho o sinal Tá tudo engarrafado Videocassetes, computadores E homens codificados Tem uma loira que ta afim A ruiva diz que me ama A negra quer, eu já nem sei Quem é que eu levo pra cama (Refrão) Tô atrasado, me dá licença Vê se sai da minha frente Tenho miopia, sou hipertenso, Meu pé tá sempre dormente Amsterdã, via Paris Acho que é nesse que eu vou Mudei o corte do meu cabelo Já não sei como eu sou (Refrão) Tô atrasado, tô atrasado...
Composição: Karl Hummel / Marcelo NovaColaboração e revisão: PedroMarcos JúniorAnderson OliveiraPeter Rodriguese mais 3