Mantenha A Dúvida

Charlie Brown Jr.

A
123
X02220
A#
234
X13331
B
234
X24442
C#
234
X46664
D
123
XX0232
E
123
022100
F#
234
244322
G
123
320003
G#
234
431114
Tom: G
éssa música nao é mto fácil...éssa é
 a intro...deve te um
violaozinho tocando as notas A# C# 
A# F#

"lembrando q a afinação é toda em 
bemol"

E||------------------------------|
B||------------------------------|
G||--3--3-3--3-3-3-3--3-3--3-3-4-|
D||------------------------------|
A||--1--1-1--1-1-1-1--1-1--1-1-2-|
E||------------------------------|


------------------------------| 
------------------------------| 
--6--6-6--6-6-6-6--6-6--6-6-6-| 
------------------------------| 
--4--4-4--4-4-4-4--4-4--4-4-4-| 
------------------------------| 



----------------------------| 
----------------------------| 
--11----10----11-----10-----| 
--11----11----11-----11-----| 
----------------------------| 
----------------------------| 



  abafando.................... 
------------------------------| 
------------------------------| 
------------------------------| 
--9-9-9--8-8-8--6-6-6--4-4-4--| 
------------------------------| 
------------------------------| 



----------------------------------
--11-11-12-12-12-11-11-11-9-9-9-9-
----------------------------------
--8--8--9--9--9--8--8--8--6-6-6-6-
----------------------------------
----------------------------------

-|--------| 
-|7-7-9-9-| 
-|--------| 
-|4-4-6-6-| 
-|--------| 
-|--------| 



-------------------|--------------
--7----------------|--------------
-------------------|--11----10----
--4----------------|--11----11----
-------------------|--------------
-------------------|--------------

-|--------------| 
-|--------------| 
-|11-----10-----| 
-|11-----11-----| 
-|--------------| 
-|--------------| 


abafando ------------------------------| ------------------------------| ------------------------------| --9-9-9--8-8-8--6-6-6--4-4-4~-| ------------------------------| ------------------------------| verso fica com as notas A# C# A# F#...entra um solinho depois q fica pela casa 14 e 19 da corda B e mais algumas coisas refrão é A# F# A# C# A# F# A# C# intro harmönico artifial na casa 12 da corda B e verso F# ...A# F# me de motivos pra sonhar A# C# A# F# A# C#.. refrao parada violaozinho fazendo as notas no verso um solinho E||------------------------------| B||------------------------------| G||------------------------------| D||-----------1--2/4-------------| A||--1h2-2/4---------5~----------| E||------------------------------| e mais algumas frescuras em cima das notas da base volta refrao é final é -------------------------| -------------------------| --4--4-4--4-4-4-4--4-4---| -------------------------| --2--2-2--2-2-2-2--2-2---| -------------------------| -------------------------| -------------------------| --6--6-6--6-6-6-6--6-6---| -------------------------| --4--4-4--4-4-4-4--4-4---| -------------------------| -------------------------| -------------------------| --8--8-8--8-8-8-8--8-8---| -------------------------| --6--6-6--6-6-6-6--6-6---| -------------------------| -----------------| -----------------| --11-11-11-111111| -----------------| --9--9--9--9-9-9-| -----------------| B A# G# F# é isso ae... baphomet is here!
Composição: Colaboração e revisão: heldinho