O Universo a Nosso Favor

Charlie Brown Jr.

Tom: G
(intro)


E|-------------------------------
B|-------------------------------
G|-------9---8------9---8--------
D|---9-9---9---9-9----9------9-9-
A|-------------------------------
E|-------------------------------

E|---------------------------------|      
B|---------------------------------|      
G|9---8--9-----9-8--13/11-11/9-8/9-|      
D|--9-------99---------------------| (4x) 
A|------------------11/9--9/7--6/7-|      
E|---------------------------------|      



E|-----------------------------
B|-----------------------------
G|-------9---8-----11-9----8-9-
D|---9-9---9---9-9-------9-----
A|-----------------------------
E|-----------------------------

E|--------------------------------| 
B|--------------------------------| 
G|11b--------13p11----11----------| 
D|-----11h13-------13----13-11h13-| 
A|--------------------------------| 
E|--------------------------------| 


E|-------------------------------- B|-------------------------------- G|--------9---8---11-9---9-------- D|---9-9----9---9------9---9--9-9- A|-------------------------------- E|-------------------------------- E|--------------------| B|--------------------| G|9-8--13/11-11/9-8/9-| D|--------------------| A|-----11/9--9/7--6/7-| E|--------------------| (riff 1) E|------------------------- B|-0-0-2-0-4-0-5-0-4-0-2-0- G|------------------------- D|------------------------- A|------------------------- E|------------------------- E|---------------------------------------- B|2h4p2p0-0-0-2-0-4-0-5-0-4-0-2-0-5h7p5p0- G|---------------------------------------- D|---------------------------------------- A|---------------------------------------- E|---------------------------------------- --------------------------------| 0-0-2-0-4-0-5-0-4-0-2-0-7h9p7p0-| --------------------------------| --------------------------------| --------------------------------| --------------------------------| E|------------------------- B|-0-0-2-0-4-0-5-0-4-0-2-0- G|------------------------- D|------------------------- A|------------------------- E|------------------------- E|---------------------------------------- B|2h4p2p0-0-0-2-0-4-0-5-0-4-0-2-0-5h7p5p0- G|---------------------------------------- D|---------------------------------------- A|---------------------------------------- E|---------------------------------------- -------------------------------| 0-0-2-0-4-0-5-0-4-0-2-0-7h9p7p0| -------------------------------| -------------------------------| -------------------------------| -------------------------------| E|------------- B|------------- G|------------- D|8888888888888 A|8888888888888 E|6666666666666 E|------------------------------------------------| B|------------------------------------------------| G|44444444444446666666666666----------------------| D|44444444444446666666666666666666666-------------| A|22222222222224444444444444666666666-------------| E|--------------------------444444444-7-4-7-4-7-4-|
Composição: Chorão / Danilo C / Nicolas C / Rodrigo C. / Vitor I.Colaboração e revisão: almir silvajuniorJoão GonçalvesRodrigo Silva