Tudo Pro Alto

Charlie Brown Jr.

A#5
134
X133XX
A#m
234
X13321
C#5
134
X466XX
D#5
134
X688XX
F#5
134
244XXX
G#5
134
466XXX
Tom: G
[Intro] C#5  D#5

[Solo]


E|--------------------------------
B|--------------------------------
G|--------------------------------
D|------3-----3----------5--------
A|--4-4---4-4---4----6-6---6-6----
E|--------------------------------

E|--------------------------------| 
B|--------------------------------| 
G|--------------------------------| 
D|--------------------------------| 
A|4--3---1-1-1-1-0-1-1-1----------| 
E|--------------------------------| 


(Riff 1)


E|--------------------------------
B|--------------------------------
G|------10-10-10-10--10/11/10-----
D|--------------------------------
A|------8--8--8--8----8/9/8-------
E|--------------------------------


(Riff 2)


E|--------------------------------
B|--------------------------------
G|------10-10-9-9-8-8-6-6-6-6-----
D|--------------------------------
A|------8--8--7-7-6-6-4-4-4-4-----
E|--------------------------------


( C#5  D#5  A#5 )

Jogar tudo pro alto lhe convém ?
Estar acima da razão
Só porque somos jovens, só porque 
somos jovens (Riff 1)
Desesperado com o mundo estou também
Escondem tudo com um sorrizo na TV e
 não contam a ninguém --> Riff 2
(F#5,D#5,A#5,G#5,A#5) Estou confuso joguei tudo pra trás Mas no fundo eu sei que eu não tentei de tudo Mas que bom poder ter uma chance a mais --> Riff 2 Estou confuso joguei tudo pra trás Mas no fundo eu sei que não tentei de tudo Que bom poder ter uma chance a mais ( C#5 D#5 A#5 ) Tratado de forma que não deu pra entender tanta frieza (Riff 1) Disposição de sobra , vou vencer assim mesmo Já nem lembro de vocês --> Riff 2 (F#5,D#5,A#m) Então é o vício o que te faz correr atrás De mais que o início Bem que eu te avisei aquela vez que eu te encontrei ( C#5 D#5 A#5 G#5 A#5 ) Taratátatatá... ( C#5 D#5 A#5 ) A vida corre pelas ruas numa busca sem sentido Enquanto o mundo está em guerra por paz Não me pergunte o que eu quero da vida que eu quero da vida Eu tenho sede de mais (Riff 1) A vida flui na sua loucura e o momento é decisivo Mas agora estou confuso de mais não me pergunte o que eu quero da vida Não me pergunte o que eu quero da vida , eu tenho sede de mais --> Riff 2 (F#5,D#5,A#5,G#5,A#5) Mas deixe eu só te dizer o quanto eu quero bem você... Charlie Brown!!!! [Solo] C#5 D#5 A#5 Taratátatatá ( C#5 D#5 A#5 G#5 A#5 ) E|-------------------------------- B|-------------------------------- G|-------------------------------- D|------3-----3----------5-------- A|--4-4---4-4---4----6-6---6-6---- E|-------------------------------- E|--------------------------| B|--------------------------| G|--------------------------| [2x] D|--------------------------| A|4--3---1-1-1-1-0-1-1-1----| E|--------------------------| [Final] E|-------------------------------- B|-------------------------------- G|-------------------------------- D|------3-----3----------5-------- A|--4-4---4-4---4----6-6---6-6---- E|-------------------------------- E|--------------------------| B|--------------------------| G|-------3~8----------------| D|--------------------------| A|4--3----------------------| E|--------------------------|
Composição: Chorão / Renato Peres BarrioColaboração e revisão: Murillo RibeiroAndre ViniciusROMERO BARBOSA