Um Dia a Gente Se Encontra

Charlie Brown Jr.

Ab
234
431114
Ab5
134
466XXX
Bb
234
X13331
Bb5
134
X133XX
C5
134
X355XX
Cm
234
X35543
E
123
022100
Eb
234
X65343
Eb5
134
X688XX
Tom: G
Intro: Eb5  Bb5 Ab5 C5-Bb5 Ab5 

C5 Bb5 Ab5 Bb5 C5 Bb5  Ab5 Bb5


Solo:
     E           Bb              
E|-------------------------------
B|-------------------------------
G|-----------8-----------10-8/13-
D|-----------8-----------8--8/13-
A|-6-6-6-6-6-6-1-1-1-1-1-8--6----
E|-------------------------------
  AbCm-Bb
E|-------| 
B|-------| 
G|12-10--| 
D|13-13--| 
A|-------| 
E|-------| 



     E             Bb              
E|-------------------------------
B|-------------------------------
G|-8-8-8-------------------------
D|-------8-8-8-8-6-6-6-6-5-5-5-5-
A|-------------------------------
E|-------------------------------
  Ab               Cm - Bb
E|-----------------/11-10-8----| 
B|11-11---------------------11-| 
G|------8-7-8/10/8-------------| 
D|-----------------------------| 
A|-----------------------------| 
E|-----------------------------| 



Canto 3

E|--------------------------------
B|--------------------------------
G|--------------------------------
D|--------------------------------
A|-6-6-6-6-1-1-1-1---------3------
E|-----------------4-4-4-4--------

E|-------|        
B|-9/8/9-|->Liks  
G|-8-----|->      
D|-------|        
A|-------|Abafado 
E|-------|        


                           P

E|--------------------------------
B|--------------------------------
G|--------------------------------
D|--------------------------------
A|-6-6-6-6-1-1-1-1---------3------
E|-----------------4-4-4-4--------

E|-------|        
B|-------|        
G|-------|        
D|-------|        
A|-------|Abafado 
E|-------|        


                           P

E|--------------------------------
B|----------------------------8-9-
G|--------------------------------
D|--------------------------------
A|-6-6-6-6-1-1-1-1---------3------
E|-----------------4-4-4-4--------

E|-------|        
B|11~~~~-|-->Liks 
G|-------|        
D|-------|        
A|-------|Abafado 
E|-------|        


                           P

E|--------------------------------
B|-------------------8-9-8--------
G|-------------------------8~~~~--
D|-------------------------5///---
A|-6-6-6-6-1-1-1-1---------3///---
E|-----------------4-4-4-4--------

E|--|-       
B|--|-->Liks 
G|--|-       
D|--|        
A|--|Abafado 
E|--|        

                           P

Eb5                 Bb5          
Um dia na praia a gente jurou 
       Ab
ficar junto pra sempre
        C5 - Bb5       Eb5  
Depois tudo mudou eram portas 
                    Bb5
abertas que depois se fecharam
    Ab               C5  -  Bb5   
O tempo passou e as coisas mudaram
    Eb              Bb
  separaram a gente
Ab Cm - Bb As circunstâncias e as coisas Eb Bb Ab Cm - Bb (Circunstâncias e as coisas) Refrão C5 Então vamos viver Bb5 Ab5 Eb5 Um dia a gente se encontra (4x) Intro Eb5 Bb5 Ruas desertas, conflitos Ab C5 - Bb5 internos, vivendo um sonho que não é só meu Eb5 Bb5 Saudade de casa, que grande Ab C5 - Bb5 ironia, meu tempo agora não é mais só meu Eb Bb Ab E você não entende, a ação do Cm - Bb tempo e as coisas Eb Bb Ab Cm - Bb (Pausa) (Circunstâncias e as coisas) Refrão Canto 3 A liberdade é essencial pra mim, felicidade é essencial pra mim Se quem eu amo tem amor por mim, eu sei que ainda estamos longe do fim (Pausa) Refrão (Várias Vezes)
Composição: Colaboração e revisão: Gabriel LimaAlexandre Gütschowkaleo oiticicaGabriel Torrese mais 4