busca

Já Estou Crucificado

Fernandinho

INTRODUÇÃO

G------4-----------4---5-----------9-------------9----9
D----5---5-------5---5----------10---10-------10---10--
A--5-----------5-------------10------------10----------
E3-----------3-------------8-------------8-------------
     G              G              C             C

ESTRÓFE 
       
G------4-------------11--------------12--------------9----
D----5---5--------12----12--------14----12--------10---10-
A--5-----------12--------------14--------------10---------
E3----------10--------------12---------------8------------
       G            D                Em           C

Clipes