busca

Já Estou Crucificado

Fernandinho

Tom: G
                  G            D/F#
Já estou crucificado com Cristo
           Em   C
Agora vivo não mais eu! (2x)

                G           D/F#
Cristo vive em mim, Aleluia!!!
               Em            C
Cristo vive em mim, Aleluia!!! (2x)

Começa tudo de novo

Solo:

E|-----------------------------------------------------------
A|-----------------------------------------------------------
D|-----------------------------------------------------------
G|-----------------------------------------------------------
B|--------------------------5-7-8------1-3-5-----------------
E|---3-5-7----2-3-5-------------------------------2-3/5------
      Ou
E|-----------------------------------------------------------
B|-----------------------------------------------------7-8-10
G|----------------------------9-11-12----5-7-9---------------
D|---5-7-9------4-5-7----------------------------------------
A|-----------------------------------------------------------
E|-----------------------------------------------------------
Vai pro já estou.....ai depois só fica no G
  
  D                       G
Se eu amo a mensagem da cruz
  C                          G
Até morrer eu não vou proclamar
  G                        C
Levarei eu também minha cruz
   G           D         E  C
Até por uma coroa trocar

Cristo vive........

Clipes

Cifra Club Pro

Aproveite o Cifra Club com benefícios exclusivos e sem anúncios
7 dias grátis
Cifra Club Pro
Aproveite o Cifra Club com benefícios exclusivos e sem anúncios
7 dias grátis