Teus Sonhos

Fernandinho

Principal
Am7
12
X02010
C
123
X32010
C9
34
X35533
D
123
XX0232
D11
123
XX0233
D9
12
XX0230
Dm7
34
X57565
Em7
123
022030
G
123
320003
G9
12
3X020X
Gm7
1234
3X333X
Tom: G
Intro: G  D  G  D

#1t1##1t2#E|--3--3--5--3----8--7---3-3---------------------||      
B|--3--3--3--3----8--8---3-3--3-----3---3--------||      
G|-----------------------0-0--2-----2---2---2----||      
D|-----------------------------------------------||
A|-----------------------------------------------||
E|-----------------------------------------------||#/1t2##/1t1#

#2t1#Riff guitarra:
#2t2#E|------------------------------------------------------------||
B|------------------------------------------------------------||    
G|-------7-------7----------4h5p4---------------7------7------||     
D|-4/5-5---5---5---5/7--7~--------7-5-4---4/5-5---5--5---5/7~-||
A|------------------------------------------------------------||
E|------------------------------------------------------------||#/2t2##/2t1#

Em7                 G9   D9
Guarda o meu coração oh Deus
Em7                 G9
Guarda o meu coração
                  Am7
de fazer minha vontade
                Em7   D9
De viver pra mim mesmo

C9                    G9         D9
Quão insondáveis são os teus caminhos
C9                G9         D9
Inescrutáveis são os teus juízos

         Em7        G9
Minha vontade já deixei
       C          D11
O teu Reino já ganhei
          Em7        G9
Minha vontade já deixei
       C           D11
O teu Reino já ganhei

         G9            C9               D9
Os teus sonhos são maiores do que os meus
          G9                C9               D9
Os teus caminhos bem mais altos do que os meus
             Em7
Toma minha vida
C       D11
Tudo é teu
            Em7
Toma minha vida
C      D11
Tudo é teu

#3t1# Solo: C  Gm7  Dm7  C9
#3t2#E|--------------------------------------------------------------------------||
B|--------------------------------------------------------------------------||
G|--------------------------------------------------------------------------||
D|-----14-14-14---5~----15-15-15---8~-----/7-7-7---15~----5-5-5---14-14~----||
A|--------------------------------------------------------------------------||
E|--------------------------------------------------------------------------||#/3t2##/3t1#

C            Gm7
Venha o teu reino
      Dm7             C9
Seja feita a tua vontade

#4t1##4t2#E|--------------------------------------------------------------------------||
B|--------------------------------------------------------------------------||
G|--------------------------------------------------------------------------||
D|-----14-14-14---5~----15-15-15---8~-----7-7-7---15~----5-5-5----14~-------||
A|--------------------------------------------------------------------------||
E|--------------------------------------------------------------------------||#/4t2##/4t1#

#5t1##5t2#E|--------------------------------------------------------------------------||
B|--------------------------------------------------------------------------||
G|--------------------------------------------------------------------------||
D|-----14-14-14---5~----15-15-15---8~-----7-7-7---15~----5~-----------------||
A|--------------------------------------------------------------------------||
E|--------------------------------------------------------------------------||#/5t2##/5t1#

C            Gm7
Venha o teu reino
      Dm7             C9
Seja feita a tua vontade
Composição: FernandinhoColaboração e revisão: Samuel Castroalex reisLuan PeixotoRaul Durãese mais 3