busca

Cai Fora

Fred e Gustavo

Tom: D
(intro) E  C#m  A  F#m  B

E|---------------------------------------------------------------------------------------------
B|--7/9--7--9--9--9--7--7--5--5--4--5--5/7-2---9--9-7--7--5--5--4--5--5/12-12/14-12-7/9-7-5--5-
G|---------------------------------------------------------------------------------------------
D|---------------------------------------------------------------------------------------------
A|---------------------------------------------------------------------------------------------
E|---------------------------------------------------------------------------------------------

E|-11h12--11--------------------------------
B|-----------------12-----------------------
G|---------------------11-9/8---------------
D|--------------------------------9/11------
A|------------------------------------------
E|------------------------------------------

    E
Voçe quer cair fora e me dizer adeus
                        E
Mais vai quebrar a cara e o problema é seu
    A      E                                 B
A vida da voltas e hoje quem chora   pode dar graças a deus
  E
Cê sabe por nós dois eu já sofri de mais
           E
Mais vejo que esse papo já ficou pra traz
    A
Pois nesse momento   o meu sentimento
  B
Tanto fez ou tanto faz
C#m
Então chegou a hora de se decidi

A
De se mandar   fazer as malas e sumir
F#m
Os nossos planos só enganos
             B
Foi bom enquanto durou..

(refrão)

E                                              C#m
Cai fora   a vida não é como você pensa
                                   A
O meu amor não foi uma doença
     F#m                                  B
E você já teve a chance pra me dar valor...
E                                                          C#m
Cai fora   não vai pensa que eu vou sofrer a beça
                                       A
Ficar chorando não me interessa
B    (pausa)
Eu quero ser feliz   e tenho pressa...

(solo / intro)

Clipes

Cifra Club Pro

Aproveite o Cifra Club com benefícios exclusivos e sem anúncios
Cifra Club Pro
Aproveite o Cifra Club com benefícios exclusivos e sem anúncios