Estranged

Guns N' Roses

A5
12
X022XX
Am
123
X02210
Bb
234
X13331
Bb/F
1234
X8876X
Bb5
134
X133XX
C
123
X32010
C5
134
X355XX
D5
134
X577XX
E
123
022100
Eb
234
X65343
Eb5
134
X688XX
F
234
133211
F5
134
133XXX
G
123
320003
G/F
13
1XX003
G5
134
355XXX
Gm
34
355333
Gm7
1234
3X333X
Tom: G
#1t1# Gm7         C              Gm7         C
#1t2#E|--|----|------|--------|-----|----|------|--------|--------------------|
B|--|----|------|--------|-----|----|------|--------|--------------------|
G|--|----|------|--------|-----|----|------|--------|-----12b------------|
D|--|----|------|--------|-----|----|------|--------|--------------------|
A|--|-10-|-(10)-|-(10)s3-|--3--|-10-|-(10)-|-(10)s3-|-(3)----------------|
E|--|----|------|--------|-----|----|------|--------|--------------------|#/1t2##/1t1#

#2t1# G5                                 C5
#2t2#E|------------|-------13b----10-----|----------------13-----|-------------| 
B|----11--15b-|----11------------13-|-13--13-----13b----13b-|-13---(13)s--| 
G|-12---------|-12------------------|-----------------------|-------------| 
D|------------|---------------------|-----------------------|-------------| 
A|------------|---------------------|-----------------------|-------------| 
E|------------|---------------------|-----------------------|-------------| #/2t2##/2t1#

#3t1# G5                                      C5
#3t2#E|------------------|-------13b---10-----|-------------13----| 
B|-----11--15b-(15)-|----11----------13b-|-13-(13)-13b----13-| 
G|-s12--------------|-12-----------------|-------------------| 
D|------------------|--------------------|-------------------| 
A|------------------|--------------------|-------------------| 
E|------------------|--------------------|-------------------| #/3t2##/3t1#

#4t1#                             Bb5             C5                G5
#4t2#E|------------------------||---------13----|-----------------|------------| 
B|-13---13b15p11-13p11----||-11--13b----13-|-13------13--12b-|--(12)bbbb--| 
G|---------------------12-||---------------|-----------------|------------| 
D|------------------------||---------------|-----------------|------------| 
A|------------------------||---------------|-----------------|------------| 
E|------------------------||---------------|-----------------|------------| #/4t2##/4t1#

#5t1#                       Bb5                C5             G5
#5t2#E|---------------------|------------13----|--------------|------|---------| 
B|(12)-13p12--13b13p12-|-11----13b-----13-|---13--13-----|------|---------| 
G|---------------------|------------------|----------14b-|-(14)-|-(14)----| 
D|---------------------|------------------|--------------|------|---------| 
A|---------------------|------------------|--------------|------|---------| 
E|---------------------|------------------|--------------|------|---------| #/5t2##/5t1#

                     
#6t1# Eb5  F5              G5                   C5           Eb5   F5
#6t2#E|----|--------------||----------------------|------------------------| 
B|-11-|-(11)---(11)s-||----------13s15-(15)s-|-------13s15-(15)-13p12-| 
G|----|--------------||-------12-------------|----12------------------| 
D|----|--------------||----12----------------|-10---------------------| 
A|----|--------------||-10-------------------|------------------------| 
E|----|--------------||----------------------|------------------------| #/6t2##/6t1#

#7t1# G5                                   Eb5  F5     G5
#7t2#E|-----------------------|------------------------|-----------------------| 
B|-13p12------(15)-(15)s-|-------13s15-(15)-13p12-|-13p12--------15-(15)--| 
G|-------12--------------|----12------------------|-------12--------------| 
D|----------12-----------|-10---------------------|----------12-----------| 
A|-----------------------|------------------------|-----------------------| 
E|-----------------------|------------------------|-----------------------| #/7t2##/7t1#

                
#8t1# Eb5 F5  G5     Eb5   F5      Gm   F      Eb     G
#8t2#E|-------|------|------------||----|------|------|------|---------15--17b-| 
B|-15s13-|-13b--|-11---11p10-||----|------|------|------|-----------------| 
G|-------|------|------------||-12-|-(12)-|-(12)-|-(12)-|-(12)------------| 
D|-------|------|------------||----|------|------|------|-----------------| 
A|-------|------|------------||----|------|------|------|-----------------| 
E|-------|------|------------||----|------|------|------|-----------------| #/8t2##/8t1#

#9t1# F      Eb                           G5  F5           G5
#9t2#E|-(17)-|---------------------|----------|------------|-------------------| 
B|------|-s13--11-10---11br10s|8------8--|------------|-------------------| 
G|------|---------------------|----------|-10b---(10)-|-(10)--------------| 
D|------|---------------------|----------|------------|-------------------| 
A|------|---------------------|----------|------------|-------------------| 
E|------|---------------------|----------|------------|-------------------| #/9t2##/9t1#



F5                                   G5
And what more could you ask from me? 
F5
How could you say that I never need- 
G5          Eb5                   D5
-ed you_    when you took everything 
F5
said you took everything from me? 


#10t1# w/Riff A
 G5           C5  Eb5    F5  G5             C5   Eb5     F5 G5   Eb5 F5
#10t2#E|------------|--------------|--------------|---------------|----|--------| 
B|------------|--------------|--------------|---------------|----|--------| 
G|------------|--------------|--------------|---------------|----|--------| 
D|------------|----1-1-1-1-3-|--5-----------|-----1-1-1-1-3-|-5--|--(5)---| 
A|-----5--6-5-|-3------------|------5---6-5-|--3------------|----|--------| 
E|-3----------|--------------|--------------|---------------|----|--------| #/10t2##/10t1#

#11t1# G5    Eb5   Gm    F      Eb     Gm                     F
#11t2#E|-----|-----||-----|------|------|------|-----15--15s17-|-18----18s20-| 
B|-----|-----||-----|------|------|------|---------------|-------------| 
G|-----|-----||-12--|-(12)-|-(12)-|-(12)-|-(12)----------|-------------| 
D|-(5)-|-(5)-||-----|------|------|------|---------------|-------------| 
A|-----|-----||-----|------|------|------|---------------|-------------| 
E|-----|-----||-----|------|------|------|---------------|-------------| #/11t2##/11t1#

#12t1# Eb                     Gm     Gm7                C
#12t2#E|-(20)---18--17-18--15-|-15--||-(15)-----|-(15)--|-------------|--------|| 
B|----------------------|-----||----------|-------|-------------|--------|| 
G|----------------------|-----||----------|-------|-------------|----12b-|| 
D|----------------------|-----||----------|-------|-------------|--------|| 
A|----------------------|-----||-------10-|-(10)--|-(10)--10-s3-|-(3)----|| 
E|----------------------|-----||----------|-------|-------------|--------|| #/12t2##/12t1#

#13t1# G5                                C5
#13t2#E|-------------|-------13b--10-----|---------------13----| 
B|----11--15b--|----11---------13b-|-13--(13)-13b-----13-| 
G|-12----------|-12----------------|---------------------| 
D|-------------|-------------------|---------------------| 
A|-------------|-------------------|---------------------| 
E|-------------|-------------------|---------------------| #/13t2##/13t1#

#14t1#                                  Bb5               C5
#14t2#E|-----------13------------------||-----------13----|---------------------| 
B|-13----13b-----13br(13)p11-----||-11---13b-----13-|-(13)---13---12b-----| 
G|----------------------------12-||-----------------|---------------------| 
D|-------------------------------||-----------------|---------------------| 
A|-------------------------------||-----------------|---------------------| 
E|-------------------------------||-----------------|---------------------| #/14t2##/14t1#

#15t1# G5                           Bb5               C5
#15t2#E|----------|-----------------|------------13---|------------13--15-------| 
B|-(12)-----|-------13p12--12-|-11----13b----13-|--13---13b---------------| 
G|-------14b|-(14)------------|-----------------|-------------------------| 
D|----------|-----------------|-----------------|-------------------------| 
A|----------|-----------------|-----------------|-------------------------| 
E|----------|-----------------|-----------------|-------------------------| #/15t2##/15t1#

#16t1# G5                    C5
#16t2#E|-(15)-|-(15)---13p12-|-----|------|| 
B|------|--------------|-13--|--13--|| 
G|------|--------------|-----|------|| 
D|------|--------------|-----|------|| 
A|------|--------------|-----|------|| 
E|------|--------------|-----|------|| #/16t2##/16t1#

#17t1# C5           Eb5                    C5            Eb5
#17t2#E|------------|----------------------|-------------|----------------------| 
B|------------|----------4---4p3-----|-3-----------|---------4--4p3-4p3---| 
G|-----5------|--------3---------5p3-|-----5-------|-------3-----------5p3| 
D|---5--------|----3h5---------------|---5---------|---3h5----------------| 
A|-3------3-5-|-6--------------------|---------3-5-|-6--------------------| 
E|------------|----------------------|-------------|----------------------| #/17t2##/17t1#

#18t1# C5           Eb5                   Bb      F              C
#18t2#E|------------|---------------------|----|--|-1------------|-0------------| 
B|-3----------|-----------4--3------|-3--|--|-1------------|-1--------1---| 
G|-----5------|--------3-------5--3-|----|--|-2---------2--|-0------0-----| 
D|---5--------|---3--5--------------|----|--|-3-------3----|-2----2-------| 
A|--------3-5-|-6-------------------|----|--|-3-----3------|-3--3---------| 
E|------------|---------------------|----|--|-1---1--------|--------------| #/18t2##/18t1#

#19t1# G             Bb   C     Bb    C     Bb    F             G/F
#19t2#E|-------------|----|-----|-----|--0--|-----|-------------|---------------| 
B|-3-----------|-3--|--1--|--3--|--1--|--3--|--1----------|-3-------------| 
G|-0---------0-|-3--|--0--|--3--|--0--|--3--|--2--------2-|-0--------0----| 
D|-0-------0---|-3--|--2--|--3--|--2--|--3--|--3------3---|-0------0------| 
A|-2-----2-----|-1--|--3--|--1--|--3--|--1--|--3----3-----|-2----2--------| 
E|-3---3-------|----|-----|-----|-----|-----|--1--1-------|-3--3----------| #/19t2##/19t1#

#20t1# Bb/F          F               C            G              Bb/F
#20t2#E|------------|---------------|-------------|--------------|----| 
B|-3--------3-|-1---------1---|-1---------1-|-3------------|-1--| 
G|-3------3---|-2-------2---0-|-0-------0---|-0--------0-0-|-3--| 
D|-3----3-----|-3-----3-------|-2-----2-----|-0------0-----|-3--| 
A|-1--1-------|-3---3---------|-3---3-------|-2----2-------|-3--| 
E|------------|-1-------------|-------------|-3--3---------|-1--| #/20t2##/20t1#

#21t1#                             C    G           F
#21t2#E|-------------------------|-0--|-----------|---------| 
B|-------------------------|-1--|-----------|---------| 
G|-------------------------|-0--|-----------|---------| 
D|-------3-------------3---|-2--|-----------|---------| 
A|-------------------------|-3--|-----------|---------| 
E|-1--1----1--1--1--1----1-|----|-----------|---------| #/21t2##/21t1#

#22t1#                            C                         G
#22t2#E|-------------------------|-0--|-----------|-0--------|------------------| 
B|-------------------------|-0--|--1--1-----|-1--------|-3----------------| 
G|-------------------------|-0--|--0-----0--|-0------0-|-0--------0-------| 
D|-------3-------------3---|-2--|--2--------|-2----2---|-0------0---------| 
A|-------------------------|-3--|--3--------|-3--3-----|-2----2-----------| 
E|-1--1----1--1--1--1----1-|----|-----------|----------|-3--3-------------| #/22t2##/22t1#

 
#23t1#  F            C            G             F             C
#23t2#E|------------|--0--------|-------------|-------------|--0----------------| 
B|-1--------1-|--1--------|--3----------|--1--------1-|--1--------1-------| 
G|-2------2---|--0------0-|--0--------0-|--2------2---|--0------0---------| 
D|-3----3-----|--2----2---|--0------0---|--3----3-----|--2----2-----------| 
A|-3--3-------|--3--3-----|--2----2-----|--3--3-------|--3--3-------------| 
E|-1----------|-----------|--3--3-------|--1----------|-------------------| #/23t2##/23t1#


#24t1#  G   F     C              G            F            C
#24t2#E|--------|--0-----------|-------------|------------|-0-------------------| 
B|-3---1--|--1---------1-|--3----------|-1--------1-|-1---------1---------| 
G|-0---2--|--0-------0---|--0--------0-|-2------2---|-0-------0-----------| 
D|-0---3--|--2-----2-----|--0------0---|-3----3-----|-2-----2-------------| 
A|-2---3--|--3---3-------|--2----2-----|-3--3-------|-3---3---------------| 
E|-3---1--|--------------|--3--3-------|-1----------|---------------------| #/24t2##/24t1#


#25t1# G             F            C           G   F
#25t2#E|------------|------------|-----------|-------|| 
B|-3----------|-1--------1-|-1-------1-|-3---1-|| 
G|-0--------0-|-2------2---|-0-----0---|-0---2-|| 
D|-0------0---|-3----3-----|-2---2-----|-0---3-|| 
A|-2----2-----|-3--3-------|-3-3-------|-2---3-|| 
E|-3--3-------|-1----------|-0---------|-3---1-|| #/25t2##/25t1#



#26t1# [Guitar solo I]
 C                           Am
#26t2#E|---------------------------|---------------------------| 
B|---------------------------|---------------------------| 
G|-5----------------5h7p5----|--5b---5-----------5h7p5---| 
D|-------------5h7--------(7)|--------------5h7-------(7)| 
A|---------------------------|---------------------------| 
E|---------------------------|---------------------------| #/26t2##/26t1#

#27t1# C                            F
#27t2#E|---------------------------|------------------------------| 
B|-8-------------------------|----------------------------6-| 
G|-----7b---7--5h7p5s4-5p4---|------------------------5s7---| 
D|-------------------------5-|--5b-3-5---3--5--3--5s7-------| 
A|---------------------------|---------5--------------------| 
E|---------------------------|------------------------------| #/27t2##/27t1#

#28t1#                                        C
#28t2#E|-----6---6------8-8-8-----8-----8----|-------------------------------| 
B|-6s8---8---8s10-------11b---11b---11b|-11----------------------------| 
G|-------------------------------------|------------------17h19p17-----| 
D|-------------------------------------|------------17h19---------(19)-| 
A|-------------------------------------|-------------------------------| 
E|-------------------------------------|-------------------------------| #/28t2##/28t1#

#29t1#      G                                      F
#29t2#E|--------------------------------------|-----------------------------------| 
B|--------------------------------------|-----20---------------------20p18--| 
G|--17b-----17----------17h19p17--------|-19b-------17------17--19----------| 
D|--------------17h19-------------(19)--|-----------------------------------| 
A|--------------------------------------|-----------------------------------| 
E|--------------------------------------|-----------------------------------| #/29t2##/29t1#

#30t1##30t2#E|----------------------------------------------|-----------------------------------| 
B|--18p17---18p17-18p17----17-----17------------|--------------17--18--20--18b------| 
G|----------------------19----19b----19--17-----|--19b~---19-------------------17b~-| 
D|------------------------------------------19--|-----------------------------------| 
A|----------------------------------------------|-----------------------------------| 
E|----------------------------------------------|-----------------------------------| #/30t2##/30t1#
  
#31t1##31t2#E|------------------------------------|------------------------------------| 
B|--13b---13b------------------13b----|15b-15-p13--15b--15b-15-13--13-15-13| 
G|--------------12b--12b--12b---------|----------14---14---------14--------| 
D|------------------------------------|------------------------------------| 
A|------------------------------------|------------------------------------| 
E|------------------------------------|------------------------------------| #/31t2##/31t1#

#32t1# C5                              G5
#32t2#E|------18----------18-----------|----18----------18----------------------| 
B|-18b-----18----18----18--16----|-18b---18----18----18--16---------------| 
G|----------------------------17-|--------------------------17------------| 
D|-------------------------------|----------------------------------------| 
A|-------------------------------|----------------------------------------| 
E|-------------------------------|----------------------------------------| #/32t2##/32t1#

#33t1# F5                          C5        G5            C5
#33t2#E|---------------------------|----------------------|---------------------| 
B|-15--15--------------------|----------------------|---------------------| 
G|--------17----15-----------|----------------------|--------15-----------| 
D|------------------17-15-13-|-----15b-----------13-|(13)--15b-15b-13-15b-| 
A|---------------------------|-15----------13h15----|---------------------| 
E|---------------------------|----------15----------|---------------------| #/33t2##/33t1#

#34t1# G5
#34t2#E|---------------------------------------15---| 
B|---------------------15h16p15--15-16-18--18-| 
G|------15-17-17--15-17--------17-------------| 
D|-15-17--------17----------------------------| 
A|--------------------------------------------| 
E|--------------------------------------------| #/34t2##/34t1#

#35t1# F5
#35t2#E|-18--15h18p15--15---------------------|---------------------------------| 
B|---18--------15---18b--18--16--16-----|---------------------------------| 
G|-----------------------------17--17p15|-17-17-15--15--------------------| 
D|--------------------------------------|---------17--17-15-13-15-13----15| 
A|--------------------------------------|---------------------------15-13-| 
E|--------------------------------------|---------------------------------| #/35t2##/35t1#

#36t1# C5
#36t2#E|------------|-----------------------------|----------------------------|| 
B|------------|-----------------------------|----------------------13----|| 
G|------------|-----------------------------|-------------------12-------|| 
D|-(15)-------|-(15)------------------------|----------------14----------|| 
A|------------|-----------------------------|-------------15-------------|| 
E|------------|-----------------------------|----------------------------|| #/36t2##/36t1#

#37t1# G               F             C
#37t2#E|--------------|-------------|---------10s12-----| 
B|-12--------12-|-10-------10-|-8-----------------| 
G|-12------12---|-10-----10---|-9-----------------| 
D|-12----12-----|-10---10-----|-10----------------| 
A|-10--10-------|-8---8-------|-------------------| 
E|--------------|-------------|-------------------| #/37t2##/37t1#

#38t1# G                 F            C                G5
#38t2#E|--10------------|------------|-0------------|-0--|| 
B|----------13s15-|--10--13s15-|-1s13---------|-1--|| 
G|-------12-------|------------|-0------------|-0--|| 
D|-----10---------|------------|-2------------|-2--|| 
A|----------------|------------|-3----0-------|-3--|| 
E|----------------|------------|---------3--0-|----|| #/38t2##/38t1#
  

 A5               G5                 F5           G5
 I knew the storm was getting clo-        er 
 A5                G5               F5             G5
 And all my friends said I was high._________ 
 A5            G5             F5         G5 A5     G5            F5      E
 But evrything we've ever known's here.     I never wanted it to die 


#39t1# D5  C5   F            C
#39t2#E|---|---|-1---|-(1)--|-0-|
B|---|---|-1---|-(1)--|-1-|
G|---|---|-2---|-(2)--|-0-|
D|---|---|-3---|-(3)--|-2-| 
A|---|---|-3---|-(3)--|-3-|
E|---|---|-1---|-(1)--|---|#/39t2##/39t1#
Composição: Axl RoseColaboração e revisão: wauez macahdoGabriela HudsonJamir Rissardo