busca

Patience

Guns N' Roses

Tom: B (forma dos acordes no tom de C) Afinação: Eb Ab Db Gb Bb Eb
[Intro] C  G/B  A  D  
        C  G/B  A  D  
        C  G  C  Em  C  G  D

(Violão 1)

    C
E|------0---------------------------------------------|
B|--------1---------3p1---0h1-------------------------|
G|--0-0-----0-0-----0---0-0---0-0---------------------|
D|--2-2-----2-2-----2---2-2---2-2-0-------------------|
A|--3-3-----3-3-----3---3-----3-3---------------------|
E|----------------------------------------------------|

   G/B
E|----------------------------------------------------|
B|--------0----------1p0------------------------------|
G|------0---0--------------2p0------------------------|
D|----0-------0------------------2p0------------------|
A|--2-----------2--------2-----2----------------------|
E|----------------------------------------------------|

    A
E|----------------------------------------------------|
B|----2------------3/2----0h2--2----------------------|
G|------2---2------2------0h2--2--2-2-----------------|
D|--------2---2----2------2----2--2-2-----------------|
A|--0-----------0------0----------0-0-----------------|
E|----------------------------------------------------|

    D
E|----2-----2------3p2----0-----2---------------------|
B|------3-----3----3---3--3--3--3---------------------|
G|--------2-----2--2---2--2--2--2---------------------|
D|--0--------------0---0-----0------------------------|
A|----------------------------------------------------|
E|----------------------------------------------------|

          C
E|--------0-------------------------------------------|
B|----------1---1---------3p1---0h1-------------------|
G|------------0---0-------0---0-0---0-0---------------|
D|------------------2-----2---2-2---2-2-0-------------|
A|--0-2-3-----------------3---3-----3-3---------------|
E|----------------------------------------------------|

   G/B
E|----------------------------------------------------|
B|----0--------------1p0------------------------------|
G|------0---0--------------2p0------------------------|
D|--------0---0------------------2p0------------------|
A|--2-----------2--------2-----2----------------------|
E|----------------------------------------------------|

    A
E|----------------------------------------------------|
B|----2------------3\2----0h2--2----------------------|
G|------2---2------2------0h2--2--2-2-----------------|
D|--------2---2----2------2----2--2-2-----------------|
A|--0-----------0------0----------0-0-----------------|
E|----------------------------------------------------|

    D
E|----2---------------3p2----0h2--2--2--2-------------|
B|------3---3---------3---3--3----3--3--3-------------|
G|--------2---2-------2---2--0h2--2--2--2-------------|
D|--0-----------0-----0---0-------0--0--0-------------|
A|----------------------------------------------------|
E|----------------------------------------------------|

(Violão 2)

[Intro] C/G  G  A  D

[Solo]

E|--------------10-------------------7-8-9-10---------|
B|-----8-8-10b12--12r10-8-10-8-10b11------------------|
G|-7/9------------------------------------------------|
D|----------------------------------------------------|
A|----------------------------------------------------|
E|----------------------------------------------------|

E|---------------------7/8/9-----10----8----7----7p5--|
B|10b12r10--8--10p8-10--------------------------------|
G|---------------------7/8/9--/11---/9--/7-----7------|
D|----------------------------------------------------|
A|----------------------------------------------------|
E|----------------------------------------------------|

Dedilhado: C  G  Em  D

   C         G         C
E|-------0---------3---------0------------------------|
B|-----1--1------3---3-----1---1-----------0----------|
G|---0---------0---------0-------------------0--------|
D|---------------------------------------2------------|
A|-3-------------------3---------------2--------------|
E|-----------3-------------------3-2-0----------------|
 
   C         G          D
E|-------0---------3----------2-----------------------|
B|-----1---1-----3---3------3-------------------------|
G|---0---------0----------2---------------------------|
D|----------------------0-----------------------------|
A|-3--------------------------------------------------|
E|-----------3----------------------------------------|

[Primeira Parte]

C
  Shed a tear cause I'm missing you
G/B
    I'm still alright to smile
A                               D
  Girl I think about you every day now

C
  Was a time when I wasn't sure
        G/B
But you     set my mind at easy
A                                 D
  There is no doubt you're in my heart now

    C
E|----------------------------------------------------|
B|--------1-----------3p1---0h1-----------------------|
G|------0---0---------0---0-0---0-0-------------------|
D|----2-------2-------2---2-2---2-2-0-----------------|
A|--3-----------3-----3---3-----3-3-------------------|
E|----------------------------------------------------|

   G/B
E|----------------------------------------------------|
B|----0--------------1p0------------------------------|
G|------0---0--------------2p0------------------------|
D|--------0---0------------------2p0------------------|
A|--2-----------2--------2-----2----------------------|
E|----------------------------------------------------|

    A
E|----------------------------------------------------|
B|----2------------3\2----0h2--2----------------------|
G|------2---2------2------0h2--2--2-2-----------------|
D|--------2---2----2------2----2--2-2-----------------|
A|--0-----------0------0----------0-0-----------------|
E|----------------------------------------------------|

    D
E|--------0--2--------3p2----0h2--2--2--2-------------|
B|------3----3--------3---3--3----3--3--3-------------|
G|----2------2--------2---2--0h2--2--2--2-------------|
D|--0--------0--0-----0---0-------0--0--0-------------|
A|----------------------------------------------------|
E|----------------------------------------------------|

(Violão 2)

   C                           G
E|----------------------------------3-----------------|
B|-------1-----1-------------------3-3----------------|
G|-----0---0-0---0-----0---------0--------------------|
D|---2-------------2----------------------------------|
A|-3-----------------3---2----------------------------|
E|-------------------------5br-3----------------------|

   A
E|-------5---------5----------------------------------|
B|---------5---------5---5-7-8-7-5-7------------------|
G|-----6---------6-----7------------------------------|
D|---7---------7--------------------------------------|
A|-0---------0----------------------------------------|
E|----------------------------------------------------|

[Refrão]

C               G
  Said, woman, take it slow
           C               Em
And it'll work itself out fine
C               G
All we need is just a little
 D  D4(9)  D  D4  D  D4(9)  D
Patience

C               G
  Said, sugar, make it slow
           C             Em
And we'll come together fine
C               G
All we need is just a little
 D  D4(9)  D  D4  D  D4(9)  D
Patience

( D  D4(9)  D  D4  D  D4(9)  D )
( D  D4(9)  D  D4  D  D4(9)  D )
( D  D4(9)  D  D4  D  D4(9)  D )

(Violão 2)

   C                           G
E|----------------------------------3-----------------|
B|----1--------1-------------------3-3----------------|
G|----0----0-----0-----0---------0--------------------|
D|----2------------2----------------------------------|
A|----3--------------3---2----------------------------|
E|-------------------------5br-3----------------------|

E|----------------------------------------------------|
B|----------------------------------------------------|
G|---0-----0-----0---0-----0----0---------------------|
D|-----5-----5---------5-----5------------------------|
A|-0-----0-----0---0-----0-----0----------------------|
E|----------------------------------------------------|

E|----------------------------------------------------|
B|----------------------------------------------------|
G|-----0---0------------------------------------------|
D|---7---4--4-----------------------------------------|
A|-5----------7-5-7/9-7-----5-------------------------|
E|----------------------7-5---------------------------|

   C                       G
E|---0-----0-----0-----0-------0-----0----------------|
B|-----1-----1-----1-----1----3-3---3-3---------------|
G|-------0-----------0-------0-----0------------------|
D|----------------------------------------------------|
A|-3-----------3--------------------------------------|
E|-------------------------3------3-------------------|

   A
E|-----0------0----2---2------------------------------|
B|----2-2----2-2----3---3----5----3-------------------|
G|---2------2--------2--------------------------------|
D|--2------2-----0--------/5---/4---------------------|
A|-0------0-------------------------------------------|
E|----------------------------------------------------|

[Segunda Parte]

C
  I sit here on the stairs
          G/B
Cause I'd     rather be alone
   A                                D
If I can't have you right now I'll wait dear

C
  Sometimes I get so tense
       G/B
But I can't speed up the time
     A
But you know love
                              D
There's one more thing to consider

[Refrão]

C             G
  Said woman take it slow
      C                  Em
And things will be just fine
 C                G
You and I'll just use a little
 D  D4(9)  D  D4  D  D4(9)  D 
Patience

C             G
  Said sugar take the time
           C                   Em
Cause the lights are shining bright
 C                 G
You and I've got what it takes to
 D  D4(9)  D  D4  D  D4(9)  D 
Make it
 D  D4(9) D   D4  D  D4(9)  D 
We won't fake it
D  D4(9)  D  D4  D  D4(9)  D 
Oh, I'll never break it
 D  D4(9)  D   D4  D  D4(9)  D 
Cause I can't take it

[Solo] C  G  C  Em  C  G
       D  D4(9)  D  D4  D  D4(9)  D
       C  G  C  Em  C  G
       D  D4(9)  D  D4  D  D4(9)  D  (4x)

(Violão 2)

[Solo]

E|-8p7-8--8/10-8-----------------8p7-8-8/10--8--10/12-|
B|---------------10/12p10-8-8-------------------------|
G|----------------------------------------------------|
D|----------------------------------------------------|
A|----------------------------------------------------|
E|----------------------------------------------------|

E|-8p7-8--8/10-8-----------------10/12-10-10--12/14---|
B|---------------10/12-10-8-8-8-----------------------|
G|----------------------------------------------------|
D|----------------------------------------------------|
A|----------------------------------------------------|
E|----------------------------------------------------|

E|-12-10h12-10----------------------------------------|
B|-------------------5-8------------------------------|
G|---------------7b9-----7b9r7-5-7-----4-7------------|
D|---------------------------------7b9-----7b9r7-5----|
A|----------------------------------------------------|
E|----------------------------------------------------|

E|----------------------------------------------------|
B|-----5-8-------------8-10b12r10p8----8-10-10b12-----|
G|-7b9-----7b9r7-5-7/9--------------9-----------------|
D|----------------------------------------------------|
A|----------------------------------------------------|
E|----------------------------------------------------|

E|----------------------------------------------------|
B|--10p8-10p8-8-10b12-8-10p8-8-10-8-10/12-10-10-------|
G|----------------------------------------------------|
D|----------------------------------------------------|
A|----------------------------------------------------|
E|----------------------------------------------------|

E|----------------------------------------------------|
B|-------------------7b8-7----------7b8-7-------------|
G|-7/9-7----------------------------------------------|
D|-------9p7-----7--------9p7-------------------------|
A|-----------7h8---5----------7h8-5-------------------|
E|----------------------------------------------------|

[Terceira parte]

( D  D/F#  G )
( D  D/F#  G )

D  D/F#         G        D  D/F#  G
        Little patience
               D       D/F#  G
Need a little patience
               D       D/F#  G
Just a little patience

D                          D/F#
  I've been walking the streets tonight
G
  Just trying to get it right
D                           D/F#
  It's hard to see with so many around
      G
You know, I don't like being stuck in the crowd
           D                      D/F#
And the streets don't change but baby the names
G
  I ain't got time for the game
         D
Cause I need you
 D/F#       G
Yeah but I need you
       F
Oh, I need you
       G
Oh, I need you
          D    D/F#  G  D
Oh, this time

(Violão 2)

[Frases Finais]

E|-/10-----14-----------------------------------------|
B|-/10-----15-----------------------------------------|
G|-/11-----14-----------------------------------------|
D|----------------------------------------------------|
A|----------------------------------------------------|
E|----------------------------------------------------|

E|-14-14-14\-12--12--10--10--8--8--8-8-8\5-5----------|
B|----------------------------------------------------|
G|-14-14-14\-12--12--11--11--9--9--8-8-8\5-5----------|
D|----------------------------------------------------|
A|----------------------------------------------------|
E|----------------------------------------------------|

E|-3-3-3-3-3--2--3-3-5-3-------------3-5-3-2----------|
B|-----------------------3-5-3---3--------------------|
G|-4-4-4-4-4--2----------------4---4------------------|
D|----------------------------------------------------|
A|----------------------------------------------------|
E|----------------------------------------------------|

E|------------------------5---------------------------|
B|---7-8-10-8---8-----6h7---8-6-7-8-------------------|
G|-9----------9---------------------------------------|
D|----------------------------------------------------|
A|----------------------------------------------------|
E|----------------------------------------------------|

E|-3p2---------------2--------------------------------|
B|-----3-------------3--------------------------------|
G|-------2-----------2--------------------------------|
D|----------5p4------0--------------------------------|
A|--------------5-------------------------------------|
E|----------------------------------------------------|

Clipes