busca

Entrevista Com Seu Ex

Gusttavo Lima

Tom: Bb
[Intro] Bb  F  Gm  Eb 

E|-----6--5---1--1/3--1-------------------------------|
B|----------------------------------------------------|
G|-3/7----5---2--2/3--3-------------------------------|
D|----------------------------------------------------|
A|----------------------------------------------------|
E|----------------------------------------------------|

E|-----6-6--5---1--1/3--1------------------11----9/10-|
B|----------------------------------------------------|
G|-3/7------5---2--2/3--3-------------3/12-12----9/10-|
D|----------------------------------------------------|
A|----------------------------------------------------|
E|----------------------------------------------------|

[Primeira Parte]

    Cm
Eu sei que você nem gosta
                           Gm
De tocar no nome dessa pessoa

Mas deixa eu te explicar
    Cm                         Eb
Mas é que eu quero fazer tudo certo
                   Gm
Não te machucar a toa
      F
Pode confiar

[Pré-Refrão]

            Cm      
Ninguém melhor que ele
       Eb              Gm
Pra saber dizer principalmente
                     F
O que eu não devo fazer
          Cm                
Eu vou botar minha cara a tapa
        Eb                          F  G  F/A
Mesmo que você não queira eu vou fazer

[Refrão]

          Bb           F
Uma entrevista com seu ex
         Gm            Eb
Quero saber o que ele fez
               Bb    
De errado pra te perder
                F
Anotar para eu não fazer
        Gm                       Eb
E no final pegar na mão e agradecer
   
          Bb           F
Uma entrevista com seu ex
         Gm            Eb
Quero saber o que ele fez
               Bb    
De errado pra te perder
                F
Anotar para eu não fazer
        Gm                       Eb
E no final pegar na mão e agradecer
                 
Por ter perdido você

( Bb  F  Gm  Eb )

[Pré-Refrão]

            Cm      
Ninguém melhor que ele
       Eb              Gm
Pra saber dizer principalmente
                     F
O que eu não devo fazer
          Cm                
Eu vou botar minha cara a tapa
        Eb                          F  G  F/A
Mesmo que você não queira eu vou fazer

[Refrão]

          Bb           F
Uma entrevista com seu ex
         Gm            Eb
Quero saber o que ele fez
               Bb    
De errado pra te perder
                F
Anotar para eu não fazer
        Gm                       Eb
E no final pegar na mão e agradecer
   
          Bb           F
Uma entrevista com seu ex
         Gm            Eb
Quero saber o que ele fez
               Bb    
De errado pra te perder
                F
Anotar para eu não fazer
        Gm                       Eb
E no final pegar na mão e agradecer

          Bb           F
Uma entrevista com seu ex
         Gm            Eb
Quero saber o que ele fez
               Bb    
De errado pra te perder
                F
Anotar para eu não fazer
        Gm                       Eb
E no final pegar na mão e agradecer
                   
Por ter perdido você

[Final] Bb  F  Gm  Eb

Clipes

Cifra Club Pro

Aproveite o Cifra Club com benefícios exclusivos e sem anúncios
Cifra Club Pro
Aproveite o Cifra Club com benefícios exclusivos e sem anúncios