Zé da Recaída

Gusttavo Lima

B
234
X24442
Bb
234
X13331
C
123
X32010
C#
234
X46664
D#m
1234
XX1342
Dm
123
XX0231
F
234
133211
F#
234
244322
Gm
34
355333
Tom: G
[Intro] F  C  Dm  Bb

#1t1##1t2#E|-5-8-----------8---------------5-5h6p5--------------|
B|-6---8/10-8--8---8/10-8--8\6-8---------8-8\6/10-6~--|
G|----------------------------------------------------|
D|----------------------------------------------------|
A|----------------------------------------------------|
E|----------------------------------------------------|#/1t2##/1t1#

[Riff Guitarra]

#2t1##2t2#E|---13---12---10~------------------------------------|
B|-x----x----x----------------------------------------|
G|----------------------------------------------------|
D|----------------------------------------------------|
A|----------------------------------------------------|
E|----------------------------------------------------|#/2t2##/2t1#

[Primeira Parte]

 F             C
To há mais de duas horas
Dm                Bb
Ensaiando uma recaída
 F         C
Número já tá na tela
Dm                        Bb
É só apertar o verde que liga

[Pré-Refrão]

    Gm           C
Me vê uma dose pra mudar minha vida
Dm                    F
  Da melhor que você tem
     Bb                C                    Dm
Pra ver se com inspiração em Old Parr, ela vem
                     F           Bb
O empurrãozinho que falta, ai ai ai
                       C
Pra completar essa chamada, ah

[Refrão]

  F
Atende aí
                      C
O Zé da recaída tá ligando aí
Eu não to nem aí
       Dm
Se salvou meu nome assim
O importante é que ao vivo
        Bb         C
Cê me chama de benzim

  F
Atende aí
                      C
O Zé da recaída tá ligando aí
Eu não to nem aí
       Dm
Se salvou meu nome assim
O importante é que ao vivo
        Bb         C
Cê me chama de benzim

[Solo] F  C  Dm  Bb
       F  C  Dm  Bb

#3t1##3t2#E|-5-8-----------8---------------5-5h6p5--------------|
B|-6---8/10-8--8---8/10-8--8\6-8---------8-8\6/10-6~--|
G|----------------------------------------------------|
D|----------------------------------------------------|
A|----------------------------------------------------|
E|----------------------------------------------------|#/3t2##/3t1#

#4t1##4t2#E|-5-8-----------8---------------5-5h6p5--------------|
B|-6---8/10-8--8---8/10-8--8\6-8---------8-8\6/10-6~--|
G|----------------------------------------------------|
D|----------------------------------------------------|
A|----------------------------------------------------|
E|----------------------------------------------------|#/4t2##/4t1#

#5t1##5t2#E|-12/13-13-13-13--12-10h12p10-8--8/10----------------|
B|----------------------------------------------------|
G|----------------------------------------------------|
D|----------------------------------------------------|
A|----------------------------------------------------|
E|----------------------------------------------------|#/5t2##/5t1#

[Pré-Refrão]

    Gm           C
Me vê uma dose pra mudar minha vida
Dm                    F
  Da melhor que você tem
     Bb                C                    Dm
Pra ver se com inspiração em Old Parr, ela vem
                     F           Bb
O empurrãozinho que falta, ai ai ai
                       C
Pra completar essa chamada, ah

[Refrão]

  F
Atende aí
                      C
O Zé da recaída tá ligando aí
Eu não to nem aí
       Dm
Se salvou meu nome assim
O importante é que ao vivo
        Bb         C
Cê me chama de benzim

  F
Atende aí
                      C
O Zé da recaída tá ligando aí
Eu não to nem aí
       Dm
Se salvou meu nome assim
O importante é que ao vivo
        Bb         C  C#
Cê me chama de benzim

  F#
Atende aí
                      C#
O Zé da recaída tá ligando aí
Eu não to nem aí
       D#m
Se salvou meu nome assim
O importante é que ao vivo
        B          C#
Cê me chama de benzim

  F#
Atende aí

[Final]

#6t1##6t2#E|-6-9-----------9------------------------------------|
B|-7---9/11-9--9---9/11-9--7~-------------------------|
G|----------------------------------------------------|
D|----------------------------------------------------|
A|----------------------------------------------------|
E|----------------------------------------------------|#/6t2##/6t1#
Composição: Junior Gomes / Murilo Huff / Ricardo Vismarck / RonaelColaboração e revisão: Thiago AlmeidaBruno Assad