busca

Luzes da Cidade

Marcelo Camelo

Tom: C
INTRO: Riff C


(Riff C)
Luzes da cidade

Coração solar
(Riff C)
Beijos de chegada
                     Dm7
Ou hora de entrar em cena
                  G7/B
Eu e a minha pequena

Jogo só de dois


(Riff C)
Fim da tempestade

Vila Isabel
(Riff C)
Velha novidade
                    Dm7
O teu sorriso bossa nova
                     G7/B
Que esse céu azul se mova
             (Riff E)
Muito devagar


F7M            Em
Pode ser abençoado o teu amor
        F7M
Morena
                  G7
Poder ser de abençoar


(Riff C)
Luzes da cidade

Coração solar

(Riff C)
Beijos de chegada
                     Dm7
Ou hora de entrar em cena
               G7/B
Eu e a minha pequena

Jogo só de dois


(Riff C)
Fim da tempestade

Vila Isabel
(Riff C)
Velha novidade
                    Dm7
O teu sorriso bossa nova
                     G7/B
Que esse céu azul se mova
             (Riff E)
Muito devagar



ACORDES e RIFFS:

Dm7 = X 5 7 5 6 5
Em = 0 2 2 0 0 0
F7M = 1 X 2 2 1 X
G7 = 3 2 0 0 0 1
G7/B = 7 X 5 7 6 0


Riff C:

E|---0-0----0-0------0---0-0---0-0----0----0--0----0-0------0---0-0----0-0----0--|
B|---1-1----1-1------1---1-1---1-1----1----1--1----1-1------1---1-1----1-1----1--|
G|---------------0h2---0--------------------------------0h2---0------------------|
D|-2--------------------------------3-----2---------------------------------0----|
A|--------3--------------------------------------3-------------------------------|
E|---------------------------3---------------------------------------3-----------|


Riff E:

E|----------------------0-----0--|
B|----------------0--------0--4--|
G|----------1--------3-----------|
D|-----2-------2-----------------|
A|--------2----------------------|
E|--0----------------------------|

Clipes

Cifra Club Pro

Aproveite o Cifra Club com benefícios exclusivos e sem anúncios
7 dias grátis
Cifra Club Pro
Aproveite o Cifra Club com benefícios exclusivos e sem anúncios
7 dias grátis