busca

Teus Olhos

Marcelo Camelo

Tom: E
Intro: (E C#m) 6x

A7M B7 E7M(9) E7 A7M Am E7 C#m F#m B7 E {Versão Normal}

{Solo - Versão Acústica - Ensaio}

E|-------------------------------------------
B|------------------5-4-5-4/2-0---0---0---0--
G|---------------6------------1-1---1---1---1
D|----2-----2----6------------2--------------
A|----2---2--2/4-------------------2--------
E|-0----4---------------------0------------0--

E|--------------------------------------0--0h2
B|-------5-4-5-4/2--2---2---2---2----4--4--4--
G|----6-------------2-2---2---2---2-----------
D|----6-------------2-----2----------4--------
A|2/4-----------------------------------------
E|--------------------------------------------

E|-0--0h2--0--4/7------------------7/2--2/5---
B|-4--4----4-------------5-4--3---------------
G|---------------------4------4---------------
D|-------------------6------------------------
A|-----------------7--------------------------
E|------------0------------------0------------

E|-------4-2-------2--0--2--0--2--2/4---------
B|-------2-2-5--1--1--1--1--1--1--------------
G|-----2-----2--2-----------------------------
D|---2----------2-----------------------------
A|-0------------0-----------------------2-2/4-
E|------------------------------------0-------

E|----5/2-2-----------4-----------------------
B|-----------------------0----------------4---
G|-4---------------4-----1--------------6-6-6-
D|-3---------------4-----2--2-----2-----6---6-
A|------------0-2---------------2---2/4-------
E|----------2------------0----4---------------


F#m7                     C#m
Teus olhos abrem pra mim
Todos os encantos
F#m7                     C#m
Teus olhos abrem pra mim

F#m7                  C#m
Teus olhos abrem pra mim
                   F#m7
Todos os encantos bons
                      E
Tudo que se quer vai lá

    A7M       E7M(9)
Eu vi na terra
C#m               A7M
Você chegando assim
 B7                      E7M(9)  E7
Assim, de um jeito tão sereno
    A7M            Am7
Ai,ai meu Deus do céu
               E7 C#m
Eu vivo sem pensar
    F#m B7
Se sou só

E7M(9)       A7M
 Acho que eu não vou mais
E7M(9)          C#m
Agora tudo tanto faz,
     A7M
Meu bem,
              B7
Eu vi você passar
               E7M(9)  E7
Levando meu encanto
              A7M      Am
Caminho sem saber de mim
               E7 C#m
Eu vivo sem pensar
       F#m B7
Se sou só
        A7
Ou sou mar

A7M                 E7M(9)
   Mas eu conto com você
A7M                          E7M(9)
Pois enquanto eu não me resolver
       A7M               E7M(9)
Eu vou lá, eu vou lá, eu vou
A7M                          E7M(9)
Mas enquanto eu não me resolver
       A7M               E7M(9)
Eu vou lá, eu vou lá, eu vou

Teus olhos abrem pra mim...
Eu vi na terra...
Acho que eu não vou mais...

Clipes

Cifra Club Pro

Aproveite o Cifra Club com benefícios exclusivos e sem anúncios
Cifra Club Pro
Aproveite o Cifra Club com benefícios exclusivos e sem anúncios