Romantico Anônimo

Marcos & Belutti

Bm
234
X24432
C7M
12
X3200X
C9
34
X35533
D/F#
1234
2X0232
D5
134
X577XX
D5(9)
134
X579XX
D6
134
X5420X
E4
123
022200
Em
12
022000
Em7
123
022030
G
123
320003
Tom: G
[Intro]  G  D5  Em  E4  C7M

#1t1#          G
#1t2#E|---------------------------------------|
B|--3-----3-----1------0-----------------|
G|--0---0-0---0-0---0--0---0-------------|
D|----0-----0-----0------0---------------|
A|---------------------------------------|
E|--3------------------------------------|#/1t2##/1t1#

#2t1#          D5
#2t2#E|---------------------------------------|
B|-0-----0-----0------0------------------|
G|-2---0-2---2-2----2-2---2--------------|
D|-0-0-----0------0-----0----------------|
A|---------------------------------------|
E|---------------------------------------|#/2t2##/2t1#

#3t1#          Em          E4    Em
#3t2#E|---------------------------------------|
B|-0-----0-------------------------------|
G|-0---0-0---0-2--2--0----0--------------|
D|---2----2----2-2---2--2----------------|
A|---------------------------------------|
E|-0-------------------------------------|#/3t2##/3t1#

#4t1#          C7M
#4t2#E|---------------------------------------|
B|-0------0-----0-----0------------------|
G|-0---0--0---0-0---0-0---0--------------|
D|---2------2-----2-----2----------------|
A|-3-------------------------------------|
E|---------------------------------------|#/4t2##/4t1#

                  G                      D5
Lembra daquele garoto que sentou do seu lado
                Em     E4      Em     C7M
Te ofereceu no recreio um sanduíche amassado
                G                    D5
Lembra daquele rapaz que você nem dava bola
                 Em     E4          Em   C7M
Que escrevia eu te amo nas paredes da escola

[Pré Refrão]

#5t1#          G
#5t2#E|-------------------------------------|
B|--3-----3-----1------0---------------|
G|--0---0-0---0-0---0--0---0-----------|
D|----0-----0-----0------0-------------|
A|-------------------------------------|
E|--3----------------------------------|#/5t2##/5t1#

#6t1#          D5         D5(9)   D6
#6t2#E|-------------------------------------|
B|-3-----3-----5------7----------------|
G|-2---0-2---2-2----2-4---4------------|
D|-0-0-----0------0-----0--------------|
A|-------------------------------------|
E|-------------------------------------|#/6t2##/6t1#

#7t1#          Em7                 D6
#7t2#E|-------------------------------------|
B|-8-----8------8------7/--------------|
G|-7---7-7---7--7----7-4/--------------|
D|---9-----9------9----0/--------------|
A|-------------------------------------|
E|-7-----------------------------------|#/7t2##/7t1#

#8t1#         C9
#8t2#E|-------------------------------------|
B|-3------3----3-----------------------|
G|-0---0--0----0-----------------------|
D|---2------2--------------------------|
A|-3-----------------------------------|
E|-------------------------------------|#/8t2##/8t1#

                    G
Aquele cara que te deu um guarda-chuva
                     D5          D5(9)  D6
Quando a tempestade te pegou na rua
                       Em7
Aquelas flores que deixavam no portão
     D6             C9
Que sempre vinha assinado no cartão

[Refrão]

 G    D5(9)   Em7   C9
Romântico anônimo!
                  G                      D5
Lembra daquele garoto que sentou do seu lado
                Em     E4      Em     C7M
Te ofereceu no recreio um sanduíche amassado
                  G                     D5
Lembra daquele rapaz que você nem dava bola
                   Em   E4          Em   C7M
Que escrevia eu te amo nas paredes da escola

                    G
Aquele cara que te deu um guarda-chuva
                     D5          D5(9)  D6
Quando a tempestade te pegou na rua
                       Em7
Aquelas flores que deixavam no portão
     D6             C9
Que sempre vinha assinado no cartão

 G    D5(9)   Em7  C9
Romântico anônimo! 

Em7
Ouvi você falar de outros amores
Bm
Eu vi o mundo então perder as cores
  C9
Quanto tempo esperei a frase certa
     D/F#
Pra te mostrar que eu era
 G    D5(9)   Em7  C9
Romântico anônimo!
Composição: Bruno Caliman / Ivo Mozart / Tato / Zeider PiresColaboração e revisão: Luis LopezCarlos BarbosaMarcos PauloMarquim Forroe mais 6