busca

Alcohol

Nirvana

Tom: D
(intro e ponte)

   C  G G D D
E|-------------
B|-------------
G|-------------
D|-5------7-7--
A|-3--5-5-5-5--
E|----3-3------

(pré-verso e refrão)

E|-------------------
B|-------------------
G|-------------------
D|------------------- (2x)
A|-0-0�-5-0-4-0-5-0--
E|-0-0�-3-0-2-0-3-0--

(verso)

E|-----------------------
B|-----------------------
G|-----------------------
D|-----------------------(2x)
A|-7-7--10-11-7-7-10-11--
E|-5-5---8--9-5-5--8--9--

(verso 1)
My baby taught me how to be
My baby taught me how to fight
My baby taught me how to die

(refrão)
Alcohol, alcohol, alcohol, alcohol!

(verso 2)
My baby taught me how to smoke
My baby taught me how to breathe
My baby taught me how to hide
My baby taught me how to leave

(refrão)
Alcohol, alcohol, alcohol, alcohol!

(verso 3)
My baby taught me how to choke
My baby taught me how to eat
My baby taught me how to ***
My baby taught me how to be

(refrão)
Alcohol, alcohol, alcohol, alcohol!

Clipes