busca

Clean Up Before She Comes

Nirvana

Tom: F
(Acoustic)


Verso #1 (Lento com Palm muted)
         
E-------------------------------------------------------------------------------------------
B-------------------------------------------------------------------------------------------
G-------------------------------------------------------------------------------------------
D-------------------------------------------------------------------------------------------
A-------------------------------------------------------------------------------------------
E-------X--X----X---X--X---X--X----X-----0--11--12---0--11--12---0--11--12---0--3--0--3--0--
                                
E-------------------------------------------------------------------------------------------
B-------------------------------------------------------------------------------------------
G-------------------------------------------------------------------------------------------
D-------------------------------------------------------------------------------------------
A-------------------------------------------------------------------------------------------
E----------0--11--12---0--11--12---0--11--12---0--11--12---0--11--12---0--3--0--3--0--------

* * Se você ouvir a música e acompanhar, você pega fácil o geito * * 
Refrão #1
E----------------------------------------------------------------------------------------------------
B----------------------------------------------------------------------------------------------------
G----------------------------------------------------------------------------------------------------
D-5--X--5---5--5--5----8--X--8---8--8--8---------11--12-------11--12--------11--12-----0--3--0--3--0-
A-5--X--5---5--5--5----8--X--8---8--8--8-----0--11--12----0--11--12----0--11--12-----0--3--0--3--0---
E--5--X--5---5--5--5----8--X--8---8--8--8-----0--11--12----0--11--12----0--11--12-----0--3--0--3--0--

E-------------------------------------------------------------------------------------------
B-------------------------------------------------------------------------------------------
G-------------------------------------------------------------------------------------------
D--------5--X--5---5--5--5----8--X--8---8--8--8---------7--7--7--7---4---7--7--7--7-----10--
A--------5--X--5---5--5--5----8--X--8---8--8--8---------7--7--7--7---4---7--7--7--7-----10--
D--------5--X--5---5--5--5----8--X--8---8--8--8---------7--7--7--7---4---7--7--7--7-----10--

Clipes

Cifra Club Pro

Aproveite o Cifra Club com benefícios exclusivos e sem anúncios
7 dias grátis
Cifra Club Pro
Aproveite o Cifra Club com benefícios exclusivos e sem anúncios
7 dias grátis