busca

Heartbreaker

Nirvana

Tom: G
Obs.: Essa música foi tirada do With The Lights Out, e essa música é
      do Led Zeppelin, que o Nirvana tocou em seu primeiro show.

Intro.
e-----------------------------------------------------------------
b-----------------------------------------------------------------
g----------------------------------------------------------------- (1x)
d--------------0--1-2----------------0--1-2-----------------------
a---0h3---0-3~------------0-0-0-0-3~------------------------------
e----------------------3---------------------3--------------------

e-----------------------------------------------------------------
b-----------------------------------------------------------------
g----------------------------------------------------------------- (2x)
d--------------0--1-2----------------0--1-2-----------------------
a---------0-3~------------0-0-0-0-3~------------------------------
e----------------------3---------------------3--------------------


e-----------------------------------------------------------------
b-----------------------------------------------------------------
g-----------------------------------------------------------------  (1x)
d---0----0--1-2------------------0--1-2---------------------------
a-----3~--------------0-0-0-0-3~----------------------------------
e---------------3-----------------------3~------------------------

e-----------------------------------------------------------------
b-----------------------------------------------------------------
g--------0--1-2----------------0--1-2-----------------------------  (1x)
d---0-3~------------0-0-0-0-3~------------------------------------
a---------------3----------------------3--------------------------
e-----------------------------------------------------------------

Verso (Escute a música para acompanhar e você entenderá isto) 
e-----------------------------------------------------------------
b-----------------------------------------------------------------
g---------------7------------7---------7-----------7---------7----
d----7--7--7-x--7----7--7-x--7----7-x--7------7-x--7----7-x--7----
a----7--7--7-x--5----7--7-x--5----7-x--5------7-x--5----7-x--5----
e----5--5--5-x-------5--5-x-------5-x---------5-x-------5-x-------

Termina em
e----------
b----------
g----------
d---7------
a---7------
e---5------

Clipes